The Features - Someway Somehow Chords & Tabs

 

Someway Somehow Chords & Tabs

The Features Chords & Tabs

Version: 1 Type: Bass Tab 0 ratings
1 star 2 stars 3 stars 4 stars 5 stars
comments

Someway Somehow Bass Tab

   
-------------------------------------------------------------------------------
			     Someway Somehow - The Features
-------------------------------------------------------------------------------

Tabbed By : stevie.gladman@ntlworld.com
e-mail: stevie.gladman@ntlworld.com

Tuning: E A D G

G|-----------|
D|--3/4/6----|
A|--------4--| X 4
E|-----------|

G|----------------------------------------|
D|----------------------------------------|
A|-----------------------1-1-----------1--| X 2
E|--1-1-1-1-2-2--1-1-1-1-----1-1-1-1-2----|

G|----------------------------|
D|----------------------------|
A|-----------4--4-4-4-4-4-4-4-|
E|-2-2-2-2-1------------------| X 4

G|-----------|
D|--3/4/6----|
A|--------4--| 
E|-----------| X 4

G|----------------------------------------|
D|----------------------------------------|
A|-----------------------1-1-----------1--| X 2
E|--1-1-1-1-2-2--1-1-1-1-----1-1-1-1-2----|
[ Tab from: http://www.guitartabs.cc/tabs/t/the_features/someway_somehow_btab.html ]
G|----------------------------|
D|----------------------------|
A|-----------4--4-4-4-4-4-4-4-|
E|-2-2-2-2-1------------------| X 8

G|-----------------------------------------------------------------|
D|-----------------------------------------------------------------|
A|------------------4-4-4-------6-6-6--------4-4-4-----6-6-6-------|
E|-1-1-1-1-1-1-1----------4-6----------6-4---------4-6-------6-4---|

G|----------------------------------------|
D|----------------------------------------|
A|-----------------------1-1-----------1--| X 2
E|--1-1-1-1-2-2--1-1-1-1-----1-1-1-1-2----|


G|----------------------------|
D|----------------------------| X 8
A|-----------4--4-4-4-4-4-4-4-|
E|-2-2-2-2-1------------------|

G|-----------|
D|--3/4/6----|
A|--------4--| X 2 (further spaced out)
E|-----------|




| /  slide up
| \  slide down
| h  hammer-on
| p  pull-off
| ~  vibrato
| +  harmonic
| x  Mute note
===============================================================================
Comments