The Features - Exorcising Demons Chords & Tabs

 

Exorcising Demons Chords & Tabs

The Features Chords & Tabs

Version: 1 Type: Tab 0 ratings
1 star 2 stars 3 stars 4 stars 5 stars
comments

Exorcising Demons Tab

   
Exorcising Demons Guitar Tab 

Tabbed By: Steven Gladman
E-mail:    stevie.gladman@ntlworld.com

Intro
F# E F# E F# E F# E X 6

e |----5--7--5----|
B |------------5--|
G |---------------|
D |---------------|
A |---------------|  Keyboard at Start
E |---------------|


e |--2-4-4/5-2--4--1----4-1-------|
B |-------------------2-----2-----|
G |-------------------------------|
D |-------------------------------|
A |-------------------------------|  
E |---------------------------2~~~|

Drums + Light Guitar



e |-----------------2-2-2-2----------------------------------------|
B |--2---2----2----2-2-2-2-2-------------------------------2/3-2---|
G |-2-2-2-2--2-2--------------4-2----2-4~~--2-4------------------4-|
D |-------------------------------4-----------4--2-4---------------|
A |--------------------------------------------------4-------------|  
E |----------------------------------------------------------------|
[ Tab from: http://www.guitartabs.cc/tabs/t/the_features/exorcising_demons_tab.html ]
F# F# F# F# F# F# C# C# F# F# B B F# C# F#

A  A# F# D A C#

F# F# B   F# E F#

Part i
e |-----------------------------| 
B |--7--9--10--7--9--10--7-9-10-|
G |-----------------------------|
D |-----------------------------|
A |-----------------------------| X 3 Followed by..
E |-----------------------------|

Part ii
e |-----------------------------|
B |--9--------9---------9-------|
G |-----10-------10------10-----|
D |--------11--------11----11---|
A |-----------------------------|  
E |-----------------------------|

repeat Part 1, then..

e |------------------|
B |-9-------9--------|
G |---10-----10------|
D |-------11---11----|
A |------------------|  
E |----------------2-|

e |------------|
B |---2---2----|
G |--2-2-2-2---|
D |------------|
A |------------|  X 4
E |------------|

C# F# B F# E F#

A  A# F# D A C#

F# F# B   F# E F#

F# F# B   F# E F#

Finish on F#
Comments