The Fall Of Troy - Mouths Like Sidewinder Missiles Chords & Tabs

 

Mouths Like Sidewinder Missiles Chords & Tabs

The Fall Of Troy Chords & Tabs

Version: 1 Type: Tab 0 ratings
1 star 2 stars 3 stars 4 stars 5 stars
comments

Mouths Like Sidewinder Missiles Tab

Great song on their self-titled. pretty much correct

Mouths Like Sidewinder Missles

#Intro A# h=Hammer on p=Pull off b=Bend
e|---------------------------------8h10b------------------------------|
B|------8h10b----8-6p5----8h10b-------------8h10b----8-6p5----8h10b---|
G|---9--------5--------9--------5--------9--------5--------9----------|
D|---9--------5--------9--------5--------9--------5--------9----------|
A|---7--------3--------7--------3--------7--------3--------7----------|
E|--------------------------------------------------------------------|

#Intro B#
e|--------------------------------------------------------------------|
B|--------------------------------------------------------------------|
G|---9--------5--------9--------5--------9--------5--------9----------|
D|---9--------5--------9--------5--------9--------5--------9----------|
A|---7--------3--------7--------3--------7--------3--------7----------|
E|--------------------------------------------------------------------|

#Chorus A# Play 2x h=Hammer on b=Bend p=Pull off *=Play 4x #=Play 3x P.M. ()=Play first time only
e|--------------------------------------------7h8-8-10b8p7-----------------------------------------------------------------|
B|-------8h10b------5h6-8b6p5------8h10b-----------------------8h10b------5h6-6-8b6p5--*----*----#-------------------------|
G|---9------------5------------9------------5--------------9------------5-------------7----5---(5)-------------------------|
D|---9------------5------------9------------5--------------9------------5----------------------(5)-------------------------|
A|---7------------3------------7------------3--------------7------------3-------------5----3---(3)-------------------------|
E|-------------------------------------------------------------------------------------------------------------------------|

#Chorus B# Play 2x h=Hammer on b=Bend p=Pull off *=Play 4x #=Play 3x P.M. ()=Play first time only r=release
e|--------------------------------------------7h8-8-10b8p7-----------------------------------------------------------------|
B|-------8h10br7--5-5h6-8b6p5------8h10br7--5------------------8h10br7--5-5h6-6-8b6p5--*----*----#-------------------------|
G|---9-------------------------9---------------------------9--------------------------7----5---(5)-------------------------|
D|---------------------------------------------------------------------------------------------(5)-------------------------|
A|------------------------------------------------------------------------------------5----3---(3)-------------------------|
E|-------------------------------------------------------------------------------------------------------------------------|

#Bridge A# "YEAHHHH!!!!"
e|-------------------------------------------------------------------------------------------------------------------------|
B|-------------------------------------------------------------------------------------------------------------------------|
G|---9--9--9--9--9--9--9-9-9-9--10-10-10-10-10-10-7-7-7-7--9--9--9--9--9--9--9-9-9-9--10-10-10-10-10-10-7-7-7-7--9p7h9p7h9-|
D|-------------------------------------------------------------------------------------------------------------------------|
A|---7--7--7--7--7--7--7-7-7-7--8--8--8--8--8--8--5-5-5-5--7--7--7--7--7--7--7-7-7-7--8--8--8--8--8--8--5-5-5-5--7---------|
E|-------------------------------------------------------------------------------------------------------------------------|

#Bridge B# "YEAHHHH!!!!"
e|-------------------------------------------------------------------------------------------------------------------------|
B|-------------------------------------------------------------------------------------------------------------------------|
G|---9--9--9--9--9--9--9-9-9-9--10-10-10-10-10-10-7-7-7-7--9--9--9--9--9--9--9-9-9-9--10-10-10-10-10-10-7-7-7-7--9---------|
D|-------------------------------------------------------------------------------------------------------------------------|
A|---7--7--7--7--7--7--7-7-7-7--8--8--8--8--8--8--5-5-5-5--7--7--7--7--7--7--7-7-7-7--8--8--8--8--8--8--5-5-5-5--7---------|
E|-------------------------------------------------------------------------------------------------------------------------|

#Verse A# p=Pull off h=Hammer on \=Slide
e|-------------------------------------------------------------------------------------------------------------------------|
B|-------------------10p8-8p7-7\5-5p0-----------8p7-7h8-10p8-8p7-----------10p8-8p7-7\5-5p0-----------8p7-7h8-10p8-8p7-----|
G|----------------9--------------------------5--------------------------9--------------------------5-----------------------|
D|-------------------------------------------------------------------------------------------------------------------------|
A|---7--7--7-7-7----------------------3-3-3----------------------7-7-7----------------------3-3-3--------------------------|
E|--|---P.M.----|--------------------|-P.M.|--------------------|-P.M.|--------------------|-P.M.|-------------------------|

#Verse B#
e|------------------------------------------------------------------------------10p8---------------------------------------|
B|-----------------------------------------------------------------------8-10p8-------10p8---------------------------------|
G|----------------9---9---9---9---9----------5---5---5---5-2h3p0--------9--------------------------5--5p2-3p2-3p2-3p2-0----|
D|-------------------------------------------------------------------------------------------------------------------------|
A|---------7-7-7------7---7---7---7---3-3-3----------------------7-7-7----------------------3-3-3--------------------------|
E|--------|-P.M.|----|--------P.M.---------|----|---------P.M.--------|--------------------|-P.M.|-------------------------|

#Verse A# *=Play 4x p=Pull off h=Hammer on \=Slide
e|----------------------------------------------------------------------------------------------------------------------|
B|-------------10p8-8p7-7\5-5p0------------8p7-7h8-10p8-8p7------------10p8-8p7-7\5-5p0----*--------*-------------------|
G|----------9---------------------------5---------------------------9---------------------5--------2--------------------|
D|----------------------------------------------------------------------------------------------------------------------|
A|---7-7-7-----------------------3-3-3-----------------------7-7-7------------------------3--------0--------------------|
E|--|-P.M.|---------------------|-P.M.|---------------------|-P.M.|-----------------------------------------------------|

#Verse B#
e|----------------------------------------------------------------------------------------------------------------------|
B|-------------10p8-8p7-10p8-8p7---------------------------------------10p8-8p7-10p8-8p7--------------------------------|
G|----------9---------------------------5--5p2-3p2-3p2-3p2-0--------9---------------------------5--2--------------------|
D|----------------------------------------------------------------------------------------------------------------------|
A|---7-7-7-----------------------3-3-3-----------------------7-7-7------------------------3-3-3----0--------------------|
E|--|-P.M.|---------------------|-P.M.|---------------------|-P.M.|----------------------|-P.M.|------------------------|

> Play Chorus A & Chorus B

#Bridge 2A# Play 3x p=Pull off h=Hammer on b=Bend (1st & 2nd Time Only!)
e|----------------------------------------10-----------------------------------(10b10-7h8b-----)---------------------------|
B|---10p8--7h8--10p8--7h8--10-7--10p8-7h8----8-10p8--7-8-10-7-8p7--10p8-7h8-10-(-----------10p8)---------------------------|
G|-------------------------------------------------------------------------------------------------------------------------|
D|-------------------------------------------------------------------------------------------------------------------------|
A|-------------------------------------------------------------------------------------------------------------------------|
E|-------------------------------------------------------------------------------------------------------------------------|
[ Tab from: http://www.guitartabs.cc/tabs/t/the_fall_of_troy/mouths_like_sidewinder_missiles_tab.html ]
#Bridge 2B# Play 2x p=Pull off h=Hammer on b=Bend >=Scrape (1st Time Only! )
e|----------------------------------------10-----------------------------------(10b10-7h8b-----)---------------------------|
B|---10p8--7h8--10p8--7h8--10-7--10p8-7h8----8-10p8--7-8-10-7-8p7--10p8-7h8-10-(-----------10p8)---------------------------|
G|-------------------------------------------------------------------------------------------------------------------------|
D|>>-----------------------------------------------------------------------------------------------------------------------|
A|>>-----------------------------------------------------------------------------------------------------------------------|
E|>>-----------------------------------------------------------------------------------------------------------------------|

#Bridge 3A# Play 3x *=Play 4x b=Bend h=Hammer on ***2nd Guitar Silent 1st Time Through***
e|-------------------------------------------------------------------------------------------------------------------------|
B|----*---*----*----*---*---*----*--------------------*---*----*--*--------------------------------------------------------|
G|---9---9---14---12---7---7---12---10b10-10h12p10p9-5---5---10--9---2p1p0-2-2p1p0-2--0--2-2-------------------------------|
D|-------------------------------------------------------------------------------------------------------------------------|
A|---7---7---12---10---5---5---10--------------------3---3---9---7-----------------------0-0-------------------------------|
E|-------------------------------------------------------------------------------------------------------------------------|

#Muted BridgeA# ALL NOTES HEAVY PALM-MUTE *=Play 4x #=Play 8x
e|-------------------------------------------------------------------------------------------------------------------------|
B|----*----*----*----*----*----*----*----#----*----*----*----*-------------------------------------------------------------|
G|---9----9----9----9----7----7----7----7----5----5----5----5--------------------------------------------------------------|
D|---9----9----9----9----7----7----7----7----5----5----5----5--------------------------------------------------------------|
A|---7----7----7----7----5----5----5----5----3----3----3----3--------------------------------------------------------------|
E|---7----7----7----7----5----5----5----5----3----3----3----3--------------------------------------------------------------|

#Bridge 4A# Play 2x *=Play 8x #=Play 4x p=Pull off h=Hammer on >=Pick Scrape
e|-------------------------------------------------------------------------------------------------------------------------|
B|------------*----#----#---*--------------------------------*----#--#-----------------------------------------------------|
G|-----------9---14---12---7---12p10-10h12-10p8-10p8-10p8---5---10--9----222---222---222---5-5-5---------------------------|
D|-----------------------------------------------------------------------222---222---222---5-5-5---------------------------|
A|--->>>>>>>-7---12---10---5--------------------------------3---8---7----000---000---000---3-3-3---------------------------|
E|--->>>>>>>-------------------------------------------------------------000---000---000---3-3-3---------------------------|

#Bridge 4B# Play 2x *=Play 8x #=Play 4x p=Pull off h=Hammer on >=Pick Scrape
e|-------------------------------------------------------------------------------------------------------------------------|
B|------------*----#----#---*----#---------------------------*----#--#-----------------------------------------------------|
G|-----------9---14---12---7---12---10----10----10----10----5---10--9----222---222---222---5-5-5---------------------------|
D|-----------------------------------------------------------------------222---222---222---5-5-5---------------------------|
A|--->>>>>>>-7---12---10---5---10---8-----8-----8-----8-----3---8---7----000---000---000---3-3-3---------------------------|
E|--->>>>>>>-------------------------------------------------------------000---000---000---3-3-3---------------------------|

#Bridge 5A&B# >=repeat rapid adding increasing bend
e|----------------------------------------------------------------------------------21>>>>>>>>>>>>-------------------------|
B|----------------------------------------------------------------------------------20>>>>>>>>>>>>-------------------------|
G|---222---222---222---5-5-5---222---222---222---5-5-5---222---222---222---5-5-5-------------------------------------------|
D|---222---222---222---5-5-5---222---222---222---5-5-5---222---222---222---5-5-5-------------------------------------------|
A|---000---000---000---3-3-3---000---000---000---3-3-3---000---000---000---3-3-3-------------------------------------------|
E|---000---000---000---3-3-3---000---000---000---3-3-3---000---000---000---3-3-3-------------------------------------------|

#Bridge 6A# *=Play 8x #=Play 4x p=Pull off h=Hammer on x=Hand mute
e|-----------------------------------------------------------------------------------------------------------------|
B|----*----#----#---*--------------------------------*----#--#-----------------------------------------------------|
G|---9---14---12---7---12p10-10h12-10p8-10p8-10p8---5---10--9---5----2---------2xxxx5----2---------2---------------|
D|--------------------------------------------------------------5----2----2----2xxxx5----2----2----2---------------|
A|---7---12---10---5--------------------------------3---8---7---3----0----2----0xxxx3----0----2----0---------------|
E|--------------------------------------------------------------3----0----0----0xxxx3----0----0----0---------------|

#Bridge 6B# *=Play 8x p=Pull off h=Hammer on b=Bend
e|----------------------------------------------------------17-15h17p15-17p15-17p15-17-------------15-17-18b-------|
B|----*-----------------------17-15h17p15-17p15-17/20-17-20----------------------------20-17-15-17-----------------|
G|---9--14--14-14-14-12h14-14--------------------------------------------------------------------------------------|
D|-----------------------------------------------------------------------------------------------------------------|
A|---7-------------------------------------------------------------------------------------------------------------|
E|-----------------------------------------------------------------------------------------------------------------|

#Bridge 6B (cont.)# /=Slide x=Hand Mute
e|---17-17/15---------------------------------------------------|
B|------------20-20/17------------------------------------------|
G|-----------------------5----2---------2xxxx5----2---------2---|
D|-----------------------5----2----2----2xxxx5----2----2----2---|
A|-----------------------3----0----2----0xxxx3----0----2----0---|
E|-----------------------3----0----0----0xxxx3----0----0----0---|

#Outro 1A# *=Play 8x #=Play 4x p=Pull off h=Hammer on /=Slide down
e|----------------------------------------------------*------------------------------------------------------------|
B|----*----#----#---*--------------13p11-11-13p11---15----#--#-----------------------------------------------------|
G|---9---14---12---7---12p10-10h12----------------------10--9---5----2---------2--------5----2---------2-----------|
D|--------------------------------------------------------------5----2----2----2--------5----2----2----2-----------|
A|---7---12---10---5------------------------------------8---7---3----0----2----0--------3----0----2----0-----------|
E|--------------------------------------------------------------3----0----0----0-3////--3----0----0----0-----------|

#Outro 1B# /=Slide h=Hammer on
e|---------------------------------------------------------------------17-17-17/20-20-20/22-22-22-22-22/20-20------|
B|---20-20--17-17--20-20--17/15-15-15-15-15/13-13h15-15/17-17-17-17-17---------------------------------------------|
G|-----------------------------------------------------------------------------------------------------------------|
D|-----------------------------------------------------------------------------------------------------------------|
A|-----------------------------------------------------------------------------------------------------------------|
E|-----------------------------------------------------------------------------------------------------------------|

#Outro 1B (cont.)# /=Slide p=Pull off h=Hammer on x=Hand mute
e|---20/17--17-15h17p15-17p15-15---------------------------------------------------|
B|-------------------------------17-15-13------------------------------------------|
G|------------------------------------------5----2---------2xxxx5----2---------2---|
D|------------------------------------------5----2----2----2xxxx5----2----2----2---|
A|------------------------------------------3----0----2----0xxxx3----0----2----0---|
E|------------------------------------------3----0----0----0xxxx3----0----0----0---|

#Outro 2A&B#
e|-------|----FEEDBACK!!!!--------------FEEDBACK!!!!--------------|---|
B|-------|----FEEDBACK!!!!--------------FEEDBACK!!!!--------------|---|
G|---xxxx5----2---------2----5----2---------5-------------------------|
D|---xxxx5----2----2----2----5----2----2----5-------------------------|
A|---xxxx3----0----2----0----3----0----2----3-------------------------|
E|---xxxx3----0----0----0----3----0----0----3-------------------------|
Comments