The Fall Of Troy - I Just Got This Symphony Goin Chords & Tabs

 

I Just Got This Symphony Goin Chords & Tabs

The Fall Of Troy Chords & Tabs

Version: 1 Type: Tab

I Just Got This Symphony Goin Tab

------------------------------------------------------------------------------------------
			     I Just Got This Symphony Goin' - The Fall of Troy
------------------------------------------------------------------------------------------
Tabbed by: Piltdown 89
Email: average_joe000@hotmail.com

Tuning:EADGBe

I've been looking around for this tab for a while and couldn't find it, so i decided to 
tabbing it myself a try. So far all I know is the intro but i'm slowly tabbing out the 
of this insane song. This is my first tab, so any feedback is welcome :). Enjoy!

e|12-0---------0-12-0-12-0---------0-12-0-12-0---------0-12-0-12-0---------------------|
B|------0-12-0--------------0-12-0--------------0-12-0--------------0-12-0-------------|
G|-------------------------------------------------------------------------------------|
D|-------------------------------------------------------------------------------------|
A|-------------------------------------------------------------------------------------|
E|-------------------------------------------------------------------------------------|
[ Tab from: http://www.guitartabs.cc/tabs/t/the_fall_of_troy/i_just_got_this_symphony_goin_tab.html ]
e|14-0---------0-14-0-0-14-0----------0-14-0-0-17-0---------0-17-0-0-17-0--------0-17-0-0--|
B|------15-0-0----------------15-0-0----------------17-0-0---------------17-0-0------------|
G|-----------------------------------------------------------------------------------------|
D|-----------------------------------------------------------------------------------------|
A|-----------------------------------------------------------------------------------------|
E|-----------------------------------------------------------------------------------------|

e|12-0-------------0-12-0-------------0-12-0-12-0-12-0-------------0-12-0--------------0-12-0-12-0--|
B|------10-12-0------------10-12-0----------------------- 10-12-0------------10-12-0----------------|
G|--------------------------------------------------------------------------------------------------|
D|--------------------------------------------------------------------------------------------------|
A|--------------------------------------------------------------------------------------------------|
E|--------------------------------------------------------------------------------------------------|

e|10-0-8-5-0--10-0-8-5-0--10-0-8-5-0--10-0-8-5-0--10-0-8-5-0-10--| *back to beginning riff*
B|---------------------------------------------------------------|
G|---------------------------------------------------------------|
D|---------------------------------------------------------------|
A|---------------------------------------------------------------|
E|---------------------------------------------------------------|