The Fags - Ms Take Chords & Tabs

 

Ms Take Chords & Tabs

The Fags Chords & Tabs

Version: 1 Type: Tab 0 ratings
1 star 2 stars 3 stars 4 stars 5 stars
comments

Ms Take Tab

#----------------------------------PLEASE NOTE---------------------------------#
#This file is the author's own work and represents their interpretation of the #
#song. You may only use this file for private study, scholarship, or research. #
#------------------------------------------------------------------------------#
Arist - The Fags
Song  - Ms. Take
Album - Fags
Tabbed by - AguitarZplayiN



this song is just incredible. go check this awesome band's website at www.thefagsmusic.com
as always, listen to the song while playing. have fun and rock on.



Intro
e|-------------0-----0------------------------0----------------------|
B|--------4-------4-----4--------------4-------------4---------------|
G|------4---4------------4-----------4----4---------------4----------| x2
D|----2-------------------2--------2------------------------------2--|
A|--4----------------------------4-----------------------------------|
E|-------------------------------------------------------------------|
  "Streelights outside..."

e|--------------0------0------------------------0---------0----------|
B|--------4--------4------4--------------4----------4--------4-------|
G|------4---4-------4------4-----------4----4--------4--------4------| x2
D|----2---------------------2--------2-------------------------2-----|
A|--4------------------------------4---------------------------------|
E|-------------------------------------------------------------------|
 

e|----------------------------------4--------------------------------|
B|---------------2------------------4-----------0--------------------|
G|-----------2---2--------------4---------------6--------------------| x2
D|-------4------------------6-------------------7--------------------|
A|---4------------------6-----------------------7--------------------|
E|--2----------------------------------------------------------------|
  



[ Tab from: http://www.guitartabs.cc/tabs/t/the_fags/ms_take_tab.html ]
Verse
e|-------------------------------------------------------------------|
B|-------------------------------------------------------------------|
G|-------------------------------------------------------------------|
D|-------------------6-(x16)-----------------------------------------|
A|------7-(x16)------4-----------------------------------------------|
E|------5------------------------------------------------------------|




Pre-Chorus
e|-------------------------------------------------------------------|
B|-------------------------------------------------------------------|
G|-------------------------------------------------------------------|
D|------4------------6-----------7-----------------------------------|
A|------4-(x8)-------6-(x8)------7-(x16)-----------------------------|
E|------2------------4-----------5-----------------------------------|
 




Chorus
e|-------------------------------------------------------------------|
B|-------------------------------------------------------------------|
G|-------------------4-----------2-----------------------------------| x2
D|------2------------4-(x8)------2-(x16)-----------------------------|
A|------2-(x8)-------2-----------0-----------------------------------|
E|------0------------------------------------------------------------|
  "Things just haven't been the same..."

e|-------------------------------------------------------------------|
B|-------------------------------------------------------------------|
G|-------------------------------------------------------------------|
D|------4------------6-----------7-----------------------------------|
A|------4-(x8)-------6-(x8)------7-(x16)-----------------------------|
E|------2------------4-----------5-----------------------------------|


e|-------------------------------------------------------------------|
B|-------------------------------------------------------------------|
G|------6------------4-----------2-----------------------------------| x2
D|------6-(x8)-------4-(x8)------2-(x16)-----------------------------|
A|------4------------2-----------0-----------------------------------|
E|-------------------------------------------------------------------|
  


Verse
Pre-Chorus
Chrous
Bridge
e|-------------------------------------------------------------------|
B|-------------------------------------------------------------------|
G|-------------------------------------------------------------------|
D|------4------------6-----------7-----------------------------------|
A|------4------------6-----------7-----------------------------------|
E|------2------------4-----------5-----------------------------------|

Intro
Verse
Chorus
Comments