The Explosion - Here I Am Chords & Tabs

 

Here I Am Chords & Tabs

The Explosion Chords & Tabs

Version: 1 Type: Tab 0 ratings
1 star 2 stars 3 stars 4 stars 5 stars
comments

Here I Am Tab

   
Song: Here I Am
Band: The Explosion
Album: ?
Tuning: Standard

Since There Wasn't Any Tab For This Song, I Took The Opportunity To Make One...I Don't 
What Guitar 2 Plays, Sorry.
Greetz, HB
Any Comments Send To huubborns@hotmail.com

Intro:

Guitar 1:
e----------------------10^-----------------------------------|
B--101010101010-888888----888888-101010101010-888888-777777--|
G------------------------------------------------------------|
D------------------------------------------------------------|
A------------------------------------------------------------|
E------------------------------------------------------------|

e--------------------3^-000000-333333----------|
B--555555-7-8\333333------------------3333333--|
G----------------------------------------------|
D----------------------------------------------|
A----------------------------------------------|
E----------------------------------------------|

Guitar 2: x2
e----------------------------------------------|
B----------------------------------------------|
G--777777------------------------------777777--|
D--777777-777777-555555--777777-555555-777777--|
A--555555-777777-555555--777777-555555-555555--|
E---------555555-333333--555555-333333---------|

Pre-Verse: x2
e----------------------------------------------------|
B----------------------------------------------------|
G--7----------7----------7------------------7-7-7-7--|
D--7-7-5-5-5--7-7-5-5-5--7-7-5-5-5--5-5-5-5-7-7-7-7--|
A--5-7-5-5-5--5-7-5-5-5--5-7-5-5-5--5-5-5-5-5-5-5-5--|
E----5-3-3-3----5-3-3-3----5-3-3-3--3-3-3-3----------|

Verse:
e---------------------|
B---------------------|
G--44444444-----------|
D--44444444-22222222--|
A--22222222-22222222--|
E-----------00000000--|

Pre-Chorus:
e
B
G
D
A
e

Chorus: x2

Guitar 1:
e----------------------------------------------|
B----------------------------------------------|
G--777777------------------------------777777--|
D--777777-777777-555555--777777-555555-777777--|
A--555555-777777-555555--777777-555555-555555--|
E---------555555-333333--555555-333333---------|

Guitar 2:
e
B
G
D
A
e

Pre-Verse: x2
e----------------------------------------------------|
B----------------------------------------------------|
G--7----------7----------7------------------7-7-7-7--|
D--7-7-5-5-5--7-7-5-5-5--7-7-5-5-5--5-5-5-5-7-7-7-7--|
A--5-7-5-5-5--5-7-5-5-5--5-7-5-5-5--5-5-5-5-5-5-5-5--|
E----5-3-3-3----5-3-3-3----5-3-3-3--3-3-3-3----------|

Verse:
e---------------------|
B---------------------|
G--44444444-----------|
D--44444444-22222222--|
A--22222222-22222222--|
E-----------00000000--|

Pre-Chorus:
e
B
G
D
A
e

Chorus: x2
[ Tab from: http://www.guitartabs.cc/tabs/t/the_explosion/here_i_am_tab.html ]
Guitar 1:
e----------------------------------------------|
B----------------------------------------------|
G--777777------------------------------777777--|
D--777777-777777-555555--777777-555555-777777--|
A--555555-777777-555555--777777-555555-555555--|
E---------555555-333333--555555-333333---------|

Guitar 2:
e
B
G
D
A
e

Intro:

Guitar 1:
e----------------------10^-----------------------------------|
B--101010101010-888888----888888-101010101010-888888-777777--|
G------------------------------------------------------------|
D------------------------------------------------------------|
A------------------------------------------------------------|
E------------------------------------------------------------|

e--------------------3^-000000-333333----------|
B--555555-7-8\333333------------------3333333--|
G----------------------------------------------|
D----------------------------------------------|
A----------------------------------------------|
E----------------------------------------------|

Guitar 2: x2
e----------------------------------------------|
B----------------------------------------------|
G--777777------------------------------777777--|
D--777777-777777-555555--777777-555555-777777--|
A--555555-777777-555555--777777-555555-555555--|
E---------555555-333333--555555-333333---------|

Bridge 1:
e----------------|
B----------------|
G--7----------7--|
D--7-7-5--7-5-7--|
A--5-7-5--5-5-5--|
E----5-3--5-3----|

Bridge 2:
e--------------------------|
B--------------------------|
G--7xxxxx---------------7--|
D--7xxxxx-7xxxxx-5xxxxx-7--|
A--5xxxxx-7xxxxx-5xxxxx-5--|
E---------5xxxxx-3xxxxx----|

Chorus: x2

Guitar 1:
e----------------------------------------------|
B----------------------------------------------|
G--777777------------------------------777777--|
D--777777-777777-555555--777777-555555-777777--|
A--555555-777777-555555--777777-555555-555555--|
E---------555555-333333--555555-333333---------|

Guitar 2:
e
B
G
D
A
e

Intro:

Guitar 1:
e----------------------10^-----------------------------------|
B--101010101010-888888----888888-101010101010-888888-777777--|
G------------------------------------------------------------|
D------------------------------------------------------------|
A------------------------------------------------------------|
E------------------------------------------------------------|

e--------------------3^-000000-333333----------|
B--555555-7-8\333333------------------3333333--|
G----------------------------------------------|
D----------------------------------------------|
A----------------------------------------------|
E----------------------------------------------|

Guitar 2: x2
e----------------------------------------------|
B----------------------------------------------|
G--777777------------------------------777777--|
D--777777-777777-555555--777777-555555-777777--|
A--555555-777777-555555--777777-555555-555555--|
E---------555555-333333--555555-333333---------|
Comments