The Explosion - Here I Am Chords & Tabs

 

Here I Am Chords & Tabs

The Explosion Chords & Tabs

Version: 1 Type: Bass Tab 0 ratings
1 star 2 stars 3 stars 4 stars 5 stars
comments

Here I Am Bass Tab

I'm pretty sure this is right. It's a good song. I couldn't find a tab for it though so 
tried myself. As my first tab pleeease correct it. I think its standard tuning.

~ = play the note n hold it

Intro/Chorus   x2
G--------------------------------------------------------------------|
D--------------------------------------------------------------------|
A-55555---------------------------------------------55555555555------|
E--------55555-3333333333333-55555-33333-----------------------------|

Verse x2
G----------------------------------------------------------------|
D----------------------------------------------------------------|
A---5-------------5-----------5----------------------5-5-5-5-----|
E--------5-3-3-3----5-3-3-3----5-3-3-3---3-3-3-3-----------------|

Pre-Chorus
G--------------------------------------|
D--------------------------------------|
A-222222222222-------------------------|
E----------------------000000000000----|

Chorus x2
G--------------------------------------------------------------------|
D--------------------------------------------------------------------|
A-55555---------------------------------------------55555555555------|
E--------55555-3333333333333-55555-33333-----------------------------|

Verse x2
G----------------------------------------------------------------|
D----------------------------------------------------------------|
A---5-------------5-----------5----------------------5-5-5-5-----|
E--------5-3-3-3----5-3-3-3----5-3-3-3---3-3-3-3-----------------|
[ Tab from: http://www.guitartabs.cc/tabs/t/the_explosion/here_i_am_btab.html ]
Pre-Chorus
G--------------------------------------|
D--------------------------------------|
A-222222222222-------------------------|
E----------------------000000000000----|

Chorus x2
G--------------------------------------------------------------------|
D--------------------------------------------------------------------|
A-55555---------------------------------------------55555555555------|
E--------55555-3333333333333-55555-33333-----------------------------|


Guitar Solo (play this twice)
G--------------------------------------------------------------------|
D--------------------------------------------------------------------|
A-55555---------------------------------------------55555555555------|
E--------55555-3333333333333-55555-33333-----------------------------|

Bridge Part uno (play 2 times)
G--------------------|
D--------------------|
A-5~ ----------------|
E------5~ --3~ ------|

Bridge Part 2
G------------------------------------------------------------------|
D------------------------------------------------------------------|
A-5-5-5-5-5-5-5-5--------------------------------------------------|
E---------------------5-5-5-5-5-5-5-5--3-3-3-3-3-3-3-3---5~--------|

Chorus (play till the end)
G--------------------------------------------------------------------|
D--------------------------------------------------------------------|
A-55555---------------------------------------------55555555555------|
E--------55555-3333333333333-55555-33333-----------------------------|

	My email address is Lazyboy9227@aol.com Email me for requests and tips to help tab 
easier.  -Cody
Comments