The Expendables - Sacrifice Chords & Tabs

 

Sacrifice Chords & Tabs

The Expendables Chords & Tabs

Version: 1 Type: Tab

Sacrifice Tab

   
This first part is just the part before the solo, thought id just get that in there as well

this part one guitar plays the 4. time
-----------------------------   -----------------------------------|
-----------------------------   -----------------------------------|
--------------------8-8--5-5-   -10--s-12--------------------------|
--5--5-5-----x-5----8-8--5-5-x4 -----------------------------------|
--5--5-5-8/7-x-5----6-6--3-3-   --8--s-10--------------------------|
--3--3-3-6/5-x-3-------------   -----------------------------------|
     x x

-----------------------------13-13-13----------------------------15-15-15-|
-----------11-11-11-10-10-10-------------------11-11-11-10-10-10----------|
--12-12-12----------------------------12-12-12----------------------------|x4
--------------------------------------------------------------------------|
--------------------------------------------------------------------------|
--------------------------------------------------------------------------|


solo:
---15h17-13----------------------------------------------------|
-------------15----13h15-17b-15p13h15-13h15-10-12b-------------|
----------------14---------------------------------------------|
---------------------------------------------------------------|
---------------------------------------------------------------|
---------------------------------------------------------------|
                      slight bend
---------------15--13-15-15b---15p13---------------------------|
------10--10h11---------------------15p13-13h15----------------|
-10h12---------------------------------------------------------|
---------------------------------------------------------------|
---------------------------------------------------------------|
---------------------------------------------------------------|
[ Tab from: http://www.guitartabs.cc/tabs/t/the_expendables/sacrifice_tab.html ]
-12------15p12-------------------15----------------------------|
-15b(17)-------15p13p15--13h15p13----13h15-10--12b(13)---------|
---------------------------------------------------------------|
---------------------------------------------------------------|
---------------------------------------------------------------|
---------------------------------------------------------------|
            couldnt really hear whats going on here, but something like this
-------------------------------------------------------------------|
-17p13--10--8h10---------------------------------------------------|
----------12-------------------------------------------------------|
-----------------------10v---7-------------7-----------------------|
------------------------------10-7-10-7-10---10-7---7--------------|
--------------------------------------------------10--10-8-7-8-7-5-|
                          pm.--------------------------------------|

I know that the tones are right in the last part of the riff above, just dont know what 
they come in:) just make sure you play enough of them to hit the last tone in the right place
-----------------|
-----------------| D means downstroke, U means upstroke.
-----------------|
--5-5-5-5--------| x5, ring the last one
--5-5-5-5--------|
--3-3-3-3--------|
  D U D D

 something about this next riff sounds weird, but couldnt figgure it out, the first tone is right tho.
--15p12-----|
-------13---|
------------| x 4, and let 15 ring at end.
------------|
------------|
------------|
    this is played 3 times, and the 4th:
---------------------------------------------------------------|
------11--11-10-11---------------------------11--10-11-10------|
---12-------------------------------------12-------------------|
---------------------------------------------------------------|
---------------------------------------------------------------|
---------------------------------------------------------------|
 then another guitar plays comes in and plays this while the other keeps going on the last riff:


           3 times              and then:
---------------------------------------------------------------|
----------15-13-15------------------------15-13-11-------------|
---------------------------------------------------14-12-------|
---------------------------------------------------------------|
---------------------------------------------------------------|
---------------------------------------------------------------|


please correct this anyone. this is a great song, and there should be some accurate tabs 
there for it

Duus