The Equinox Ov The Gods - My Endless Funeral Chords & Tabs

 

My Endless Funeral Chords & Tabs

The Equinox Ov The Gods Chords & Tabs

Version: 1 Type: Tab 0 ratings
1 star 2 stars 3 stars 4 stars 5 stars
comments

My Endless Funeral Tab

   
Band:  The Equinox Ov The Gods
Album: Where Angels Not Tread
Song:  My Endless Funeral

Transcribed By: Maxtheflex
Email:          coolmau@gmx.de


.  - palm mute           /  - slide up to
\  - slide down to       ~  - vibrato
h  - hammer on           b  - Bend
p  - pull off            Suffixes for bend
t  - tap                 f  - full bend    h - half bend
ph - pinched harmonic    q  - quarter bend t - tap bend
*  - see comment         ^  - Hold bend    r release bend
x  - Stuccatto           ~  - vibrato bend
,  - slight palm mute    () - ghost note, sustained note
"  - tremolo note         - Trill

Tunning E B G D A E

That’s a really easy song, but it’s one of the best songs that I ever heard. For the right timing you must listen to the song. 
I like it to play the song with my band. We play it with some leads.
If you want it, send me a mail.
Servus!
Have Fun!

RIFF 1
[ Tab from: http://www.guitartabs.cc/tabs/t/the_equinox_ov_the_gods/my_endless_funeral_tab.html ]
|---------------------------------------------|
|---------------------------------------------|
|-----------4---------------------------------|
|--2--------4--------5--------7--------4------|
|--2--------2--------5--------7--------4------|
|--0-----------------3--------5--------2------|

RIFF 2

|-------------------------------------------------------|
|-------------------------------------------------------|
|-------------------------------------------------------|
|--2--------7--------10-------9--------2----------------|
|--2--------7--------10-------9--------2----------------|
|--0--------5--------8--------7--------0-------0-0------|
                                               . .

RIFF 3

|---------------------------------------------------------|
|---------------------------------------------------------|
|---------------------------------------------------------|
|--7-----7-----9-----9-----10----10----12-------9---------|
|--7-----7-----9-----9-----10----10----12-------9---------|
|--5-5-5-5-5-5-7-7-7-7-7-7-8-8-8-8-8-8-10-10-10-7-7-7-----|
     . .   . .   . .   . .   . .   . .     . .    . .

RIFF 4

|----------------------------------------|
|----------------------------------------|
|----------------------------------------|
|--12------7------5-------10------7------|
|--12------7------5-------10------7------|
|--10------5------3-------8-------5------|

Comments