The Elevators - Brasilica Chords & Tabs

 

Brasilica Chords & Tabs

The Elevators Chords & Tabs

Version: 1 Type: Bass Tab 0 ratings
1 star 2 stars 3 stars 4 stars 5 stars
comments

Brasilica Bass Tab

Brasilica
Elevators
By: Tomaž Mihelec (MSN: bf_tompenny@hotmail.com)


The main part of the song:
G-|----------------------------------------------------------------------------------|
D-|-------------------------------------------7-------7-------7--------7-------------|
A-|---7--------7--------7--------7------5-----5-5----5-5-----5-5---5-----7--------7--|
E-|-5-----5-5-----5-5-----5-5---5-----------------------------------------5-----5-5--|
[ Tab from: http://www.guitartabs.cc/tabs/t/the_elevators/brasilica_btab.html ]
G-|-------------------------------------------------------|
D-|-------------------------------------------------------|
A-|------7--------7--------5--------5--------5---------5--|
E-|---5-5-----5-5---5----3-----3-3-----3-3-------3-3------|

(this is like 95% of the song)

The guitar part (kind of a solo):
G-|-----------------------------------------------------------------------------|
D-|-----------------------------------------------------------------------------|
A-|-----------------------5(ring)--5(ring)--------------------------------------|
E-|--5(ring)--5(ring)------------------------3-4-5(ring)--5(ring)---------------|

And there is a pa quick part where the bassist does:
G-|---------------------------------|
D-|---------------------------------|
A-|---------------------------------|
E-|--12(and pull up to 3)-----------|

It's a jazzy song, so play it soft :)
Have fun!
Comments