The Early November - Everything's Too Cold... But You're So Hot Chords & Tabs

 

Everything's Too Cold... But You're So Hot Chords & Tabs

The Early November Chords & Tabs

Version: 1 Type: Tab 1 rating
1 star 2 stars 3 stars 4 stars 5 stars
comments

Everything's Too Cold... But You're So Hot Tab

-------------------------------------------------------------------------------
        EVERYTHING'S TOO COLD... BUT YOU'RE SO HOT - The Early November
-------------------------------------------------------------------------------
Tabbed by: Jordan
Email: iwantmusic57@gmail.com

Tuning: Eb Low to high: D#G#C#F#A#D#

I think most of it is 100% right.


INTRO/VERSE (0:00-1:33) 

Guitars One and Two
|------------|
|----------8-|
|----(0)---0-| play this four times.
|-(9)-9------|
|-10----10---|
|------------|

|------------|
|---------8--|
|----(0)--0--| again.. play four times
|-(9)-9------|
|--7----7----|
|------------|

|------------|
|--------8---|
|--(0)---0---| ...four times...
|---9--------|
|------------|
|-8---8------|

|------------|
|----------8-|
|----(0)---0-| and play this four times again..
|-(9)-9------|
|-10----10---|
|------------|

PLAY THIS WHOLE PART FOUR TIMES.

BRIDGE (1:34-1:55)
Guitar One
|----------------------------------------|
|---8---------8-------8---------8--------|
|-9---------9-------8---------8----------|  play this twice
|--------9--------9--------9--------9----|
|-----10-------10-------10------------10-|
|----------------------------------------|

CHORUS (1:56-2:38)

Guitar One
|-----------------------------------|
|-----------------------------------|
|-12----12----11----11----9----9----|
|----12----12----12----12---12---12-|
|-----------------------------------|
|-----------------------------------|

Guitar Two
|--0---|
|--8---|
|--0---|  strum this slowly nine times
|--9---|
|-10---|
|------|


VERSE (2:39-3:39)

Play the intro part again except this time play it three times instead of four.

BRIDGE (3:58-4:02)
[ Tab from: http://www.guitartabs.cc/tabs/t/the_early_november/everythings_too_cold_but_youre_so_hot_tab.html ]
Guitar one
|----------------------------------------|
|---8---------8-------8---------8--------|
|-9---------9-------8---------8----------|  play this twice, this time faster
|--------9--------9--------9--------9----|  and start making the notes a
|-----10-------10-------10------------10-|  little louder as you go
|----------------------------------------|


SECOND BRIDGE (4:03-4:56)

Guitar Two
|-------------|
|-----------8-|
|-----------0-| play this twenty times faster than before
|-----9-------|
|-10-----10---|
|-------------|

|-------------|
|----------8--|
|----------0--| play four times
|-----9-------|
|--7-----7----|
|-------------|

|-------------|
|-----------8-|
|-----------0-| play eight times
|-----9-------|
|-10-----10---|
|-------------|

|-------------|
|----------8--|
|----------0--| play four times again
|-----9-------|
|--7-----7----|
|-------------|

|-------------|
|--------8----|
|--------0----| play four times... then stop
|---9---------|
|-------------|
|-8---8-------|

Guitar One (comes in at 4:13)
|-------------------------------------|
|-------------------------------------|
|-------------------------------------|
|-------------------------------------|
|-10-12-14-10-12-14-10-12-14-15-14-12-|
|-------------------------------------|

CHORUS (4:57-5:35)

Guitar One
|-----------------------------------|
|-----------------------------------|
|-12----12----11----11----9----9----| play eight times
|----12----12----12----12---12---12-|
|-----------------------------------|
|-----------------------------------|

Guitar Two
|--0---|
|--8---|
|--0---| eight times
|--9---|
|-10---|
|------|

OUTRO (5:36-6:33)

Guitar One (Add a lot of distortion)
|--------------------------|-------------[5]---------[5]-|
|--------------------------|----------------[5]-[5]--[5]-|
|-444444444444444444444444-|---------[5]-----------------| play five times
|--------------------------|-----[5]---------------------| 
|--------------------------|-----------------------------|
|--------------------------|-----------------------------|


Guitar Two (also with a lot of distortion)
Just pickslide different places of the neck up and down the whole entire time until the end
of the song.



Thats it. any questions, email me. please rate.	


KEY
(x) = Ghost Note
[x] = Natural Harmonics	
 
Comments