The Doors - Not To Touch The Earth Chords & Tabs

 

Not To Touch The Earth Chords & Tabs

The Doors Chords & Tabs

Version: 1 Type: Tab 1 rating
1 star 2 stars 3 stars 4 stars 5 stars
comments

Not To Touch The Earth Tab

   
#----------------------------------PLEASE NOTE---------------------------------#
#This file is the author's own work and represents their interpretation of the #
#song. You may only use this file for private study, scholarship, or research. #
#------------------------------------------------------------------------------##

Not To Touch The Earth
The Doors
Album: Waiting For The Sun


Gtr I (D A D G B E)

 4/4 time

Intro
|--------------------|
|--------------------|
|--------------------| x6
|--------------------|
|---0---0---0---0----|
|-0---0---1---1------|

Verse          *= play first time only
|---------------------------------|        |---|
|---------------------------------|        |---|
|---------------------------------| x16    |---|
|------------0------------0-------|        |---|
|-0*-5b6r(5)---10b11r(10)---------|        |---|
|---------------------------------|        |-0-|


Chorus ("run with me...")
  Gm                                  Fm
|-3--3--3-----------------------------1--1--1--------------------|
|-3--3--3--8-8-8-7-7-7-6-6-6-5-5-5----1--1--1--6-6-6-5-5-5-4-4-4-|
|-3--3--3--------------------------7--1--1--1--------------------|
|-5--5--5-----------------------------3--3--3--------------------|
|-5--5--5-----------------------------3--3--3--------------------|
|-5--5--5-----------------------------3--3--3--------------------|

           Gm
|----------3--3--3---------------------------------|
|-3-3-3----3--3--3--8-8-8-7-7-7-6-6-6-5-5-5--------|
|-------5--3--3--3--------------------------7------|
|----------5--5--5---------------------------------|
|----------5--5--5---------------------------------|
|----------5--5--5----------------------------0----|

Riff 1
|--------------------|
|--------------------|
|--------------------|
|--------------------|
|---2---2---2---3----|
|-2---2---3---3------|

Verse 2
          repeat until   ("...czar")
|-----------0-6b7r(6)-0--|  |----------------|        |------|
|-0-5b6r(5)--------------|  |----------------|        |------|
|------------------------|  |----------------|repeat  |------|
|------------------------|  |----------------|        |------|
|------------------------|  |4b5-4b5-4b5-4b5-|        |------|
|------------------------|  |----------------|        |-0----|



Chorus 2
  Am                                  Gm
|-5--5--5-----------------------------3--3--3--------------------|
|-5--5--5--8-8-8-7-7-7-6-6-6-5-5-5----3--3--3--6-6-6-5-5-5-4-4-4-|
|-5--5--5--------------------------7--3--3--3--------------------|
|-7--7--7-----------------------------5--5--5--------------------|
|-7--7--7-----------------------------5--5--5--------------------|
|-7--7--7-----------------------------5--5--5--------------------|

           Am
|----------5--5--5---------------------------------|
|-3-3-3----5--5--5--8-8-8-7-7-7-6-6-6-5-5-5--------|
|-------5--5--5--5--------------------------7------|
|----------7--7--7---------------------------------|
|----------7--7--7---------------------------------|
|----------7--7--7----------------------------0----|

Riff 2
|------------------------|
|------------------------|
|------------------------| repeat until solo
|------------------------|
|-8----8----9----9-------|
|---10---10---10---10----|
[ Tab from: http://www.guitartabs.cc/tabs/t/the_doors/not_to_touch_the_earth_tab.html ]
Guitar Solo
|-------------------------------------------------------------------|         |        |
|-------------------------------------------------------------------|         |        |
|------------------13h15-13-15b17r(15)p13----13-15b17r(15)p13-------| organ   | vocals |
|------------13h15------------------------15------------------15-13-|  2 bars |  2 bars|
|-/15--13h15--------------------------------------------------------|         |        |
|-------------------------------------------------------------------|         |        |

|--------------------------------------------------------|       |        |
|--16-16-16-15-15-15-14--13-13-13------------------------|       |        |
|---------------------------------15b17-15p13----13-15-13|organ 2| vocals |
|---------------------------------------------15---------| bars  |  2 bars|
|--------------------------------------------------------|       |        |
|--------------------------------------------------------|       |        |

|----16b17r(16)-13---------------|      |------------------------------|  
|------------------16b17r(16)-13-|      |------------------------------|    
|--------------------------------| etc. |--15b17-15b17r(15)p13----13---|etc.
|--------------------------------|      |----------------------15----15|   
|--------------------------------|      |------------------------------|  
|--------------------------------|      |------------------------------|   

|---16b18-----------------------------|
|---------13------16b17r(16)b17-------|
|-------------------------------13----|
|-------------------------------------|
|-------------------------------------|
|-------------------------------------|

 (all eight notes)                         (improvise toward end)
|----------------------------13-15-16-15-13-16-15-13-17-16-14-17-16-14-
|-------------------13-15-16-------------------------------------------
|-15b17-15-15----13----------------------------------------------------
|-------------15-------------------------------------------------------
|----------------------------------------------------------------------
|----------------------------------------------------------------------
                         ("I can do anything")
-----------------------------------------------------|
-----------------------------------------------------|
-7---9--10--7----------------------------------------|
-6---8---9--6----0-----------------------------0-----|
-5---7---8--5----0-----------------------------0-----|
-0---0---0--0----0-----------------------------0-----|

tabbed by guitarfreak111

Tablature Legend
----------------
 h   - hammer-on
 p   - pull-off
 b   - bend
 pb  - pre-bend
 r   - bend release (if no number after the r, then release immediately)
 /\  - slide into or out of (from/to "nowhere")
 s   - legato slide
 S   - shift slide
  - natural harmonic
[n]  - artificial harmonic
n(n) - tapped harmonic
 ~   - vibrato
 tr  - trill
 T   - tap
 TP  - trem. picking
 PM  - palm muting
\n/  - tremolo bar dip; n = amount to dip
 \n  - tremolo bar down
 n/  - tremolo bar up
/n\  - tremolo bar inverted dip
 =   - hold bend; also acts as connecting device for hammers/pulls
   - volume swell (louder/softer)
 x   - on rhythm slash represents muted slash
 o   - on rhythm slash represents single note slash


***************************************************************************************
* Generated using Power Tab Editor by Brad Larsen - http://powertab.guitarnetwork.org *
***************************************************************************************
Comments