The Donnas - Take It Off Chords & Tabs

 

Take It Off Chords & Tabs

The Donnas Chords & Tabs

Version: 1 Type: Tab 0 ratings
1 star 2 stars 3 stars 4 stars 5 stars
comments

Take It Off Tab

   
Artitist: The Donnas
Song name: Take it off
Regular tunning: E-A-D-G-B-E
tabbed by: shane

(Intro)

Gtr. 1 (dist.)
Rhy. Fig.1
e|------------------------------------------------------------------------|
b|-------------------------3-------------------------3----3----2----------|
g|-------------------------2----------2--------------2----2----2----------|
d|----4---6---6---4--------0----------2--------------2----2----2----------|
a|----2---2---2---2--------0----------0----0----0----0----0----0----------|
E|------------------------------------------------------------------------|

End of Rhy. Fig.1 (play 3x)
e|------------------------3-----------------------------------------------|
b|------------------------3------------------2----------3----2------------|
g|------------------------0------------------2----------2----2------------|
d|----4---6---6---4-------0------------------2----------2----2------------|
a|----2---2---2---2-------x------------------0----------0----0------------|
E|------------------------3-----------------------------------------------|

Gtr. 1: w/Rhy. Fig1

Gtr. 2 (dist.)
e|-------------------------------------------------------------------------|
b|-------------------------------------------------------------------------|
G|-16-16-16-16-16-16-16-16-16-16-16-16-16-16-16-16-16-16-16-16-16-16-16-16-|
d|-------------------------------------------------------------------------|
a|-------------------------------------------------------------------------|
E|-------------------------------------------------------------------------|

e|-------------------------------------------|
b|-------------------------------------------|
g|-16--16---16---16----16---16-----16-----16-|
d|-------------------------------------------|
a|-------------------------------------------|
E|-------------------------------------------|

Gtr. 2 Tacet
B5 D5/A A5 Asus4 A B5 Gs
[ Tab from: http://www.guitartabs.cc/tabs/t/the_donnas/take_it_off_tab.html ]
Gtr. 1
e|-----------------------------------------------------------------3---|
b|------------------3-------------3--3--2--------------------------3---|
g|--4--------4------3-----2-------2--2--2------4--------4----------0---|
d|--4--------4------0-----2-------2--2--2------4--------4----------0---|
a|--2--------2------0-----0----0--0--0--0------2--------2------0---x---|
E|-----0--0---------------------------------------0--0-------------3---|

e|---3--3--3--------------------------------------------------------------|
b|---3--3--3-------3--2-----------------------3------------------3--3--2--|
g|---0--0--0--2----2--2------4--------4-------2------2--------2--2--2--2--|
d|---0--0--0--2----4--2------4--------4-------0------2--------2--2--2--2--|
a|---x--x--x--0----0--0------2--------2----0--0------0--0--0--0--0--0--0--|
E|---3--3--3--------------------0--0--------------------------------------|

e|-------------------3---------------------2-----------------------------|
b|-------------------3---------------------2-----------------------------|
g|--4--------4-------0----------2----------3-----------------------------|
d|--4--------4-------0----------2----------4--------4--4--4--4--4--4--4--|
a|--2--------2----0--x----------0----------4--------4--4--4--4--4--4--4--|
E|-----0--0----------3---------------------2--------2--2--2--2--2--2--2--|


(Chorus) Rhy. Fig.2
e|------------------------------------------------------------------------------|
b|---------------------------------------------------3-----------------3--------|
g|----------------------------4------4------4--------2-----2--2--2--2--2--2-----|
d|--4--4--4--4--4--4--4--4----4------4------4--------0-----2--2--2--2--2--2--0--|
a|--4--4--4--4--4--4--4--4----2------2------2--0--0--0-----0--0--0--0--0--0--0--|
E|--2--2--2--2--2--2--2--2------------------------------------------------------|

                                                     End Rhy. Fig.2
e|--0-----0-----0---0---0---3--------3-----------------------------|
b|--0-----0-----0---0---0---3--------3-----------------------------|
g|--x-----x-----x---x---x---0--------0--------2--------2---2---2---|
d|--2-----2-----2---2---2---0--------0--------2--------2---2---2---|
a|--2-----2-----2---2---2---x--------x--------0--------0---0---0---|
E|--0-----0-----0---0---0---3--------3-----------------------------|

Comments