The Divorce - Hearts For Handlebars Chords & Tabs

 

Hearts For Handlebars Chords & Tabs

The Divorce Chords & Tabs

Version: 2 Type: Tab 0 ratings
1 star 2 stars 3 stars 4 stars 5 stars
comments

Hearts For Handlebars Tab

The Divorce are a Seattle band. They're website: www.thedivorce.net
This Song is from their upcomming C.D. There Will Be Blood Tonight.
Song Title: Hearts For Handlebars.

I'm pretty sure most of it is fairly right and if its not, it still sounds
alright. The strumming is pretty easy in most places so i didn't bother
tabbing them out. THe tricky parts i labeled to help.

Legend:
/Slide Up
\Slide Down
~Let Ring
x-Mute

Tuning: Drop D: EBGDAD

Intro:1st Guitar
-------------------------------------------
-------------------------------------------
-7------4-----6---7~-----------------------
-x------x-----x---x~-------------- --------
-5------2-----4---5~-----------------------
-------------------------------------------

Second Guitar: Im not sure if this is a guitar or bass but it kinda sounds like this:
-------------------------------------------------
-------------------------------------------------
-------4-0000-22-4-000---------------------------
----00-x-0000-22-4-000---------------------------
----00-2-0000-00-0-000---------------------------
----00-------------------------------------------

Verse One:(Palm Mute)
------------------------------------------------
------------------------------------------------
-7~-------6----4----6---------------------------
-x~--0----x----x----x---------------------------
-5~-------4----2----4---------------------------
------------------------------------------------

Verse Two:
------------------------------------
------------------------------------
--7-6-4---7-6-4-2-------------------
--x-x-x---x-x-x-2-------------------
--5-4-2---5-4-2-0-------------------
------------------------------------

Chorus1:
-----------------------------------------------------------------
-----------------------------------------------------------------
-11\----9/---11\-9\-7\-6\---4/---6/-----7/-9/-11\-7-------------
--x\(8x)x/(8x)-x\-x\-x\-x\---x/---x/-----x/-x/--x\-x-------------
--9\----7/-----9\-7\-5\-4\---2/---4/-----5/-7/--9\-5-------------
-----------------------------------------------------------------

Intro

1st Guitar: Verse One

(2nd Guitar)Verse Fill Ins 
---------------------------------------------
-----3-0-0-2----3-0-0-----3-0-0--------------
-7~-----2--2-------2-----------2-2-----------
-x~------------------0-----------0-----------
-5~------------------0-----------------------
---------------------------------------------
[ Tab from: http://www.guitartabs.cc/tabs/t/the_divorce/hearts_for_handlebars_tab_ver_2.html ]


3rd Verse
----------------------------------------------
----------------------------------------------
--7----6----7----7-6-4-2--7-6-4-2-------------
--x----x----x----x-x-x-2--x-x-x-2-------------
--5----4----5----5-4-2-0--5-4-2-0-------------
----------------------------------------------
^each chord 6x   ^each chord 4x

Chorus 1

Solo 
-------------------------------------------
-------------------------------------------
------2--------2---77777777----------------
--0----3-2--2-3----xxxxxxxx----------------
--0----------------55555555----------------
--0----------------------------------------

----------------------------------------------------
------7-5-3-10---88-8----77-55-3-10-88--8-8--------
----7-----------7--7----7----------7---7--7---------
----------------------------------------------------
--5-------------------0-----------------------------
----------------------------------------------------

----------------------------------------------------
-----77-7-5-33----77-7-5-33-------------------------
----------------00----------------------------------
---77-----------------------------------------------
----------------------------------------------------
----------------------------------------------------

-----------------------------------------------------
-----------------------------------------------------
--7-9---11--12--------------------------------------
--0--0----0---0-----(each Chord 4 times)-------------
-----------------------------------------------------
-----------------------------------------------------

Chorus 2/Outro
----------------------------------------------------------------
----------------------------------------------------------------
-11\----9/---11\-9\-7\-6\---4/---6/-----7/-9/-11\--------------
--x\(8x)x/(8x)-x\-x\-x\-x\---x/---x/-----x/-x/--x\--------------
--9\----7/-----9\-7\-5\-4\---2/---4/-----5/-7/--9\--------------
----------------------------------------------------------------

----------------------------------------------------------------
----------------------------------------------------------------
--12--12\--9/--11\-7--7/--9\--7--77777777-----------------------
---x---x\--x/---x\-x--x/--x\--x--xxxxxxxx-----------------------
--11--11\--7/---9\-5--5/--7\--5--55554444-----------------------
----------------------------------------------------------------
^play each chord 8 times until shown strumming.

Intro
Comments