The Distillers - The Hunger Chords & Tabs

 

The Hunger Chords & Tabs

The Distillers Chords & Tabs

Version: 1 Type: Tab 1 rating
1 star 2 stars 3 stars 4 stars 5 stars
comments

The Hunger Tab

   
Hey this is a good song but no one seemed to have got it right so here ya go.

standard tuning

o and when i put an x on each string @ the same time, it means hit pickups to mute strings kinda

ull get it

 
Intro/main riff

  Am   AmAm      C    C C       F   F F F     B   B B   
e--0--x-0-0--x--0-0--x-0-0--x------x-------x-----x-------
B--1--x-1-1--x--1-1--x-1-1--x------x-------x-----x-------
G--2--x-2-2--x--0-0--x-0-0--x------x-------x-----x-------
D--2--x-2-2--x--0-2--x-2-2--x------x-------x-0-4-x-4-4-5-
A--0--x-0-0--x--0-3--x-3-3--x--0-3-x-3-3-3-x-0-2-x-2-2-3-
E--0--x-0-0--x--0-0--x-0-0--x--0-1-x-1-1-1-x-0---x-------
                                                       ^
                                                       that ickle change in power chord is not essential, 
                                                       but makes it sound sexy 


as an interlude just before ya go into the chorus play the above until ya get to the B power chords 
then play this (the same withouth the hitting of the pickups)
    B  B B
e------------
B------------
G------------
D-0-4--4-4-5-
A-0-2--2-2-3-
E-0----------

Chorus
[ Tab from: http://www.guitartabs.cc/tabs/t/the_distillers/the_hunger_tab.html ]
e----------------------                                         ----x-----x------x----
B----------------------                                         ----x-----x------x----
G----------------------                                         ----x-----x------x----
D----------------------                                         ----x-----x------x----
A--5-5-5-2-2-3-3-3-2-2-   play until verse then on the last bar --5-x-5-5-x--2-2-x-2-2 
E--3-3-3-0-0-1-1-1-0-0-                                         --3-x-3-3-x--0-0-x-o-0

 Then back into an Am and start the verse. carry this on and play an Am just before the bass solo bit where Brody sings
"yyyyyyyyyyyyyerrrrrrrrrr yer"
 
(Bass Solo Bit)

G---------------------------------------------
D---------------------------------------------
A----(12/0)-0--0-0-3--3-3-------------2--2-2-3 repeat 
E------------------------0--1--1-1-0----------

After that a very high distortion factor and some silly chords 

e---------
B---------
G-----7/9-
D-----x/x- repeat as you see nesscecary, then a finish on a Am Chord!!
A-----5/7-
E---------


i cnt believe i remeberd it! lol, ok so its not tht good i did it all myslef and it is my first tab, look sum where else for solo bits 

(i dnt like 'em) hate mail or woteva to Stickdeath_sk8r@hotmail.com
Comments