The Distillers - Only Here To Know Chords & Tabs

 

Only Here To Know Chords & Tabs

The Distillers Chords & Tabs

Version: 1 Type: Tab 0 ratings
1 star 2 stars 3 stars 4 stars 5 stars
comments

Only Here To Know Tab

   
                   
  
  I 1#                     
e|---------------------|---|---------------------|
b|---------------------|---|---------------------|
g|---------------------|---|---------------6-6---|
d|--7-7-7---6-6-6------|x 4|--7-7-7--6-6-6-------|x 4
a|----------------6-6--|---|---------------------|
E|---------------------|---|---------------------|

  I 2#
e|---------------------|---|---------------------|
b|---------------------|---|---------------------|
g|---------------------|---|--------------6-6----|
d|-7-7-7---6-6-6-------|x 4|-7-7-7--6-6-6--------|x 2
a|---------------6-6---|---|---------------------|
E|---------------------|---|---------------------|

  I 3#
e|-------------------------|
b|-------------------------|
g|-------------------------|
d|-7-7-7-7-7-7-7-7-7-7-7-7-|x 1
a|-------------------------|
E|-------------------------|
[ Tab from: http://www.guitartabs.cc/tabs/t/the_distillers/only_here_to_know_tab.html ]
  V 1#
e|---------------------------------------------|
b|---------------------------------------------|
g|-4-------3---4---4-------3---8---------------|
d|-4---4---3---4---4---4---3---8---------------|x 2
a|-2---4---1---2---2---4---1---6---------------|
e|-----2---------------2-----------------------|

  V 2#
e|-------------------------|
b|-------------------------|
g|-3---4---6---8-----------|
d|-3---4---6---8-----------|x 1
a|-1---2---4---6-----------|
E|-------------------------|

  C
e|-----------------------------|
b|-----------------------------|
g|---8-----4-------------------|
d|---8-----4-----4-----8-------|x 4 
a|---6-----2-----4-----8-------|
E|---------------2-----6-------|







  S 1#
e|--------------------------------------------------------|
b|--------------------------------------------------------|
g|-8-8-8-6-8-6--8
Comments