The Dictators - Stay With Me Chords & Tabs

 

Stay With Me Chords & Tabs

The Dictators Chords & Tabs

Version: 1 Type: Tab 0 ratings
1 star 2 stars 3 stars 4 stars 5 stars
comments

Stay With Me Tab

Title: Stay With Me
Band: The Dictators
Album: Bloodbrothers
Track: 5

There is nothing much to say but this is a great song, along with being easy.

So, Here it goes...

Intro (Just suspending chords) 
|---------------------------------------------|
|-----------------7-888-7-8-7-9-101010-9-10-9-|
|-6-777-777-6-7-6-7-777-7-7-7-9--9-9-9-9--9-9-|
|-7-777-777-7-7-7-7-777-7-7-7-9--9-9-9-9--9-9-|
|-7-555-555-7-5-7-5-555-5-5-5-7--7-7-7-7--7-7-|
|-5-555-555-5-5-5-----------------------------|

Fill (8x each)
|---------|
|---------|
|---------|
|-7-7-7-7-|
|-7-7-7-7-|
|-5-5-5-5-|
p.m>>>>>>>>
[ Tab from: http://www.guitartabs.cc/tabs/t/the_dictators/stay_with_me_tab.html ]
Verse
|-------------------------------------------------------------|
|-------------------------------------------------------------|
|---------------------------------7-7-7-7-7-7-7-9-9-9-9-9-9-9-|
|-7-7-7-7-7-7-7-7-7-7-7-7-7-7-7-7-7-7-7-7-7-7-7-9-9-9-9-9-9-9-|
|-7-7-7-7-7-7-7-7-7-7-7-7-7-7-7-7-5-5-5-5-5-5-5-7-7-7-7-7-7-7-|
|-5-5-5-5-5-5-5-5-5-5-5-5-5-5-5-5-----------------------------|
p.m>>>>>>>>>>>>>>>>>>>>>>>>>>>>>>>>>>>>>>>>>>>>>>>>>>>>>>>>>>>

Chorus 1
|-----------------------------------------------------------------|
|-----------------------------------------------------------------|
|-6-6-6-6-6-6-6-6-7-7-7-7-7-7-7-7-9-9-9-9-9-9-9-9-9-9-9-9-9-9-9-9-|
|-6-6-6-6-6-6-6-6-7-7-7-7-7-7-7-7-9-9-9-9-9-9-9-9-9-9-9-9-9-9-9-9-|
|-4-4-4-4-4-4-4-4-5-5-5-5-5-5-5-5-7-7-7-7-7-7-7-7-7-7-7-7-7-7-7-7-|

Chorus 2
|-----------------------------------------------------------------|
|-----------------------------------------------------------------|
|---------------------------------7-7-7-7-7-7-7-7-9-9-9-9-9-9-9-9-|
|-7-7-7-7-7-7-7-7-7-7-7-7-7-7-7-7-7-7-7-7-7-7-7-7-9-9-9-9-9-9-9-9-|
|-7-7-7-7-7-7-7-7-7-7-7-7-7-7-7-7-5-5-5-5-5-5-5-5-7-7-7-7-7-7-7-7-|
|-5-5-5-5-5-5-5-5-5-5-5-5-5-5-5-5---------------------------------|

Solo (not tabbed) played over Choruses

Intro 4x, Fill, Verse 4x, Chorus1 2x, Chorus2 2x, Intro 2x, Verse 4x, 
Chorus 1 2x, Chorus2 2x, Intro 2x, Solo, Chorus 2 4x,
Comments