The Departure - This New Craze Chords & Tabs

 

This New Craze Chords & Tabs

The Departure Chords & Tabs

Version: 1 Type: Bass Tab

This New Craze Bass Tab

   
The Departure - This New Craze
www.thedeparture.co.uk
Tabbed by revolt! (onlysmartieshavetheanswer66@hotmail.com)

(00:15)
X1
G|-----------------------------------------------------|
D|----------1-----------5-5------------------1---------|
A|-3--3-1-3---3-1-3---------5--5-6--3--3-1-3---3-1-3---|
D|------------------5--------------------------------5-|

X2
G|--------------------|
D|--------------------|
A|--------------------|
D|-5-8-5--8--4-8-4--8-|

X1
G|----------------------------------------|
D|----------------------------------------|
A|----------------------------------------|
D|-5-8-5--8--4-8-4--8-9-10--10-10--4--4-4-|

X1
G|---------------------------------|
D|---------------------------------|
A|----------------------6--6-------|
D|-5-8-5--8--4-8-4--8-9-------4--4-|

X1
G|---------------------------------------|
D|---------------------------------------|
A|--------------------------------6--9-9-|
D|-5-8-5--8--4-8-4--8-9-10--10-10--------|

X1
G|--------------------------------|
D|--------------------------------|
A|-6-6-6-6-6-6-6--5-5-5-5---------|
D|------------------------8-8-7-7-|

X1
G|--------------------------------|
D|----------------4-4-4-4-4-4-4-5-|
A|-6-6-6-6-6-6-6------------------|
D|--------------------------------|

X2
G|---------------------------------|
D|----------1-----------5-5--------|
A|-3--3-1-3---3-1-3---------5--5-6-|
D|------------------5--------------|

X1
G|--------------------|
D|----------1---------|
A|-3--3-1-3---3-1-3---|
D|------------------5-|
[ Tab from: http://www.guitartabs.cc/tabs/t/the_departure/this_new_craze_btab.html ]
X1
G|------------------------------------------|
D|-3/5-8-5--8--4-8-4--8-9-10--10-10--4--4-4-|
A|------------------------------------------|
D|------------------------------------------|

X2
G|---------------------------------------|
D|---------------------------------------|
A|--------------------------------6--9-9-|
D|-5-8-5--8--4-8-4--8-9-10--10-10--------|

X1
G|--------------------------------|
D|--------------------------------|
A|-6-6-6-6-6-6-6--5-5-5-5---------|
D|------------------------8-8-7-7-|

X1
G|--------------------------------|
D|----------------4-4-4-4-4-4-4-5-|
A|-6-6-6-6-6-6-6------------------|
D|--------------------------------|

X3
G|---------------------------------|
D|----------1-----------5-5--------|
A|-3--3-1-3---3-1-3---------5--5-6-|
D|------------------5--------------|

X1
G|--------------------|
D|----------1---------|
A|-3--3-1-3---3-1-3---|
D|------------------5-|

X2
G|-------------------------------------------------------------------|
D|-------------------------------------------------------------------|
A|-1-1-1-1-1-1-1-1-3-3-3-3-3-3-3-3-----------------------------------|
D|---------------------------------5-5-5-5-5-5-5-5-5-5-5-5-5-5-5-5-3-|

G|---------------------------------------------------------------------------------|
D|---------------------------------------------------------------------------------|
A|-1-1-1-1-1-1-1-1-3-3-3-3-3-3-3-3/10-10-10-10-10-10-10-10-10-10-10-10-10-10-10-10-|
D|---------------------------------------------------------------------------------|

X3
G|---------------------------------|
D|----------1-----------5-5--------|
A|-3--3-1-3---3-1-3---------5--5-6-|
D|------------------5--------------|

X1
G|--------------------|
D|----------1---------|
A|-3--3-1-3---3-1-3---|
D|------------------5-|