The Departure - Lump In My Throat Chords & Tabs

 

Lump In My Throat Chords & Tabs

The Departure Chords & Tabs

Version: 1 Type: Bass Tab

Lump In My Throat Bass Tab

   
The Departure - Lump In My Throat
www.thedeparture.co.uk
Tabbed by revolt! (onlysmartieshavetheanswer66@hotmail.com)

(00:02)
X2
G|--------------|
D|--------5-----|
A|----------5---|
D|-17/5-------3-|

X4
G|------2-2/4-5-4-2---------------------|
D|--5-----------------3--3-3-3-2--------|
A|--------------------------------3-3-5-|
D|-5-5--------------3--3----------------|
X1
G|-------|
D|-------|
A|-------|
D|-3-3-3-|

X2
G|-----------------------------------------------------------------|
D|-----------------------------------------------------------------|
A|-3-3-3-3-3-3-3-3-3-3-3-3-3-3-3-3-2-2-2-2-2-2-2-2-2-2-2-2-2-2-2-2-|
D|-----------------------------------------------------------------|

G|--------------------------------------------------------------------|
D|-----------5-5-7-5--------5-5-5-2-2---------------------------------|
A|-3-3-3-3-----------3-3-3------------2-2-2-2-2-2-2-2-2-2-2-2-2-2-2-2-|
D|--------------------------------------------------------------------|

X2
G|--------------|
D|--------5-----|
A|----------5---|
D|-17/5-------3-|
[ Tab from: http://www.guitartabs.cc/tabs/t/the_departure/lump_in_my_throat_btab.html ]
X4
G|------2-2/4-5-4-2---------------------|
D|--5-----------------3--3-3-3-2--------|
A|--------------------------------3-3-5-|
D|-5-5--------------3--3----------------|

X1
G|---------------------------------------------------------------------------------|
D|-------------------------------------------------------------------------------2-|
A|-3-3-3-3-3-3-3-3-3-3-3-3-3-3-3-3-2-2-2-2---------------------------------0-2-3---|
D|-----------------------------------------5-5-5-5-5-5-5-5-5-5-5-5-5-5-5-5---------|

X1
G|-------------------------------------------------------------------------|
D|-------------------------------------------------------------------------|
A|-3-3-3-3-3-3-3-3-3-3-3-3-3-3-3-3-2-2-2-2---------------------------------|
D|-----------------------------------------5-5-5-5-5-5-5-5-5-5-5-5-5-5-5-5-|

X5
G|-----------------------------------------------------------------|
D|-----------------------------------------------------------------|
A|-3-3-3-3-3-3-3-3-3-3-3-3-3-3-3-3-2-2-2-2-2-2-2-2-2-2-2-2-2-2-2-2-|
D|-----------------------------------------------------------------|

X1
G|----|
D|----|
A|----|
D|-5~-|

X6
G|------------------------2-2/4-5-4-2--|
D|--3--3-3-3-2--------5----------------|
A|------------3-3-5--------------------|
D|-3-3---------------5-5---------------|

X4
G|-----|
D|--5--|
A|-----|
D|-5-5-|