The Daybridges - Shes A Liar Chords & Tabs

 

Shes A Liar Chords & Tabs

The Daybridges Chords & Tabs

Version: 1 Type: Tab 0 ratings
1 star 2 stars 3 stars 4 stars 5 stars
comments

Shes A Liar Tab

   
This is a great new song from an Australian band:
their website is :
www.thedaybridges.com
im damn sure this is right so enjoy!

---------------------------------------------------------------------------
			     She's a liar - The daybridges
---------------------------------------------------------------------------
Tabbed by: Chris Campion
Email: XL_cola_slushie@hotmail.com


Tuning: normal


e|-------------------------------------------------------------------------|
B|-------------------------------------------------------------------------|
G|-------------------------------------------------------------------------|
D|---0-3-0-------0--0-33-55-3-0--0-3-0------0--0--3-3---3---0--------------|
A|----------3p0-------------------------3p0--------------------------------|
E|-------------------------------------------------------------------------|

[ Tab from: http://www.guitartabs.cc/tabs/t/the_daybridges/shes_a_liar_tab.html ]
e|-------------------------------------------------------------------------|
B|-------------------------------------------------------------------------|
G|-------10-10--12p0--10---------------------------------------------------|
D|---12--------------------------------------------------------------------|
A|-------------------------------------------------------------------------|
E|-------------------------------------------------------------------------|

e|-------------------------------------------------------------------------|
B|-------12-10-7/10--------------------------------------------------------|
G|-------12-10-7/10--------------------------------------------------------|
D|-------12-10-7/10--------------------------------------------------------|
A|--------------------5-5-5-5-5-5------------------------------------------|
E|--------------------7-7-7-7-7-7------------------------------------------|

that's it I dont know the solo so work ito out yourself....

| /  slide up
| \  slide down
| h  hammer-on
| p  pull-off
| ~  vibrato
| +  harmonic
| x  Mute note
===========================================================================
Comments