The Datsuns - Sittin Pretty Chords & Tabs

 

Sittin Pretty Chords & Tabs

The Datsuns Chords & Tabs

Version: 1 Type: Tab 0 ratings
1 star 2 stars 3 stars 4 stars 5 stars
comments

Sittin Pretty Tab

Sittin' Pretty: 
Hayden Woolley	
haydenism_1@hotmail.com


Code:
--------------------------------------------------------------------------------
 
Guitar 1- starts off by itself playing this riff

------------------------------------|-------|
------------------------------------|-------|
----------------12-14b16r14r12------|--7----|
-------12h14p12---------------14-12-|--7-7--|
----14------------------------------|--5-7--|
------------------------------------|----5--|

at (0:49) Guitar 1 plays this:

----------
---15-----
---14b16--
----------
----------
----------

Guitar 2-

--------------|-------|
--------------|-------|
----9---------|--7----|
----9---------|--7-7--| keep repeating
----7---------|--5-7--|
---(0)--------|----5--|

Solo:

Guitar 1-

----------------------------------------------------------17b19~-17-15--15---15b17r15~~-
---15b17~~--15b17-15-12-----------------------------------------------17--17------------
------------------------14-14b16~~--14-14b16r14p12--------------------------------------
---------------------------------------------------14~~---------------------------------
----------------------------------------------------------------------------------------
----------------------------------------------------------------------------------------
[ Tab from: http://www.guitartabs.cc/tabs/t/the_datsuns/sittin_pretty_tab.html ]
--15-12-15p12-----------------------------------15b17~-15-12----------------------------
--------------15-12h15p12-12-15-15b17~~--15h17--------------15-12-15b17r15-15-12-15b17~-
----------------------------------------------------------------------------------------
----------------------------------------------------------------------------------------
----------------------------------------------------------------------------------------
----------------------------------------------------------------------------------------

-----12-15b17~-15-12------------------------------15h17b19~~~~--
---15---------------15-12-15b17r15-15-12-15b17~~----------------
----------------------------------------------------------------
----------------------------------------------------------------
----------------------------------------------------------------
----------------------------------------------------------------
Guitar 2-

-------                    -------------
-------                    -------------
----9--                    --7-----9----
----9-- play for ages then --7-7---9-x2-
----7--                    --5-7---7----
---(0)-                    ----5--(0)---

Guitar 1 just plays Main Riff with Guitar 2 playing E5 with stacatto at the 
start of each riff.

Back into Main Riff then on last change Guitar 2 holds A5 leading into outro solo



----------------------------------------------
---12----12----12----12----12----12-----------
---14b16-14b16-14b16-14b16-14b16-14b16--12~~--x4
----------------------------------------------
----------------------------------------------
----------------------------------------------

then:

-----------------------------------
---12--------10----8-----7----5~---
---14gb16----12b14-10b12-9b11-7b9~- repeat and fadeout
----------------------------------- 
-----------------------------------
-----------------------------------
 
How good am I
Comments