The Darkness - Thing Called Love Chords & Tabs

 

Thing Called Love Chords & Tabs

The Darkness Chords & Tabs

Version: 1 Type: Bass Tab 3 ratings
1 star 2 stars 3 stars 4 stars 5 stars
comments

Thing Called Love Bass Tab

Artist: The Darkness
Song: I believe in a thing called love
Album: Permission To Land
tabbed by danny 182 ...well here it is ppl, enjoy! www.tand.co.uk

main riff/verse:
-----------------------------
-----------------------------
---0-0-2-2--2-2-----2-2-0-0---0-2-4---------
-2--------------0-0---------4-------0

-----------------------------
----------------------------
----------------------0-------
-------------------(4---4-2-0) (do this bit b4 pre chor)
[ Tab from: http://www.guitartabs.cc/tabs/t/the_darkness/thing_called_love_btab.html ]
pre-chor:
--------------------------------
---------------------------------
--------------------------------
-0-2-2-2-2-2-2-2-2-2-2-2-2------- x2 then...

---------------------------------
---------------------------------
-----0-1-2-2-2-2-2-2-2-2-2----------
-0-2--------------------------------

chorus:
---------------------------------
---------------------------------
-------0----------0-2-4-2-----------
-0-2-4---4-0---2-4-----------------  x3

then:
------------------------------
------------------------------
-4-4-4-2-4-5-5--5-5--------------
--------------------------------

solo 1/2: verse/main riff

last solo: chorus/chorus with guitar
Comments