The Darkness - I Believe In A Thing Called Love Chords & Tabs

 

I Believe In A Thing Called Love Chords & Tabs

The Darkness Chords & Tabs

Version: 3 Type: Tab 2 ratings
1 star 2 stars 3 stars 4 stars 5 stars
comments

I Believe In A Thing Called Love Tab

Artist: The Darkness
Track: I Believe In A Thing Called Love
Album: Permision To Land
Tabbed by Matt Bates

This is the proper tab that they play

Verse

E |------------------------------------------|
B |------------------------------------------|
G |------------------------------------------|
D |--4---7---9---9---2---9---7---------------|
A |--4---7---9---9---2---9---7------------4--|
E |--2---5---7---7---0---7---5---4--5--7----0| play X3


E |-------------------------------------------|
B |-------------------------------------------|
G |-------------------------------------------|
D |--4---7---9---9---2---9---7----------------|
A |--4---7---9---9---2---9---7----------------|
E |--2---5---7---7---0---7---5---4--5--4--2--0|

Bridge

E |--0---0-|
B |--0---0-|
G |--1---2-|
D |--2---4-|
A |--2---4-|
E |--0---0-| Play X2

E |--0---0-------0---------------------------------|
B |--0---0----------0------------------------------|
G |--1---2---2-------------------------------------|
D |--2---4-------------2--2--2--3--3--3--4--4--4---|
A |--2---4-------------0--0--0--1--1--1--2--2--2--9|
E |--0---0----------------------------------------7|

Chours
[ Tab from: http://www.guitartabs.cc/tabs/t/the_darkness/i_believe_in_a_thing_called_love_tab_ver_3.html ]
E |---------------------------------------------------------------------|
B |---------------------------------------------------------------------|
G |---------------------------------------------------------------------|
D |---------------------------------------------------------------------|
A |----------------------------2--4--2-play x3----11--11--11--12--------|
E |-0--2--4--5--4--2--2--4--5---------------------9---9---9---10--------|

Solo

E |--------------------16b^16r-----------------------------------------------------------------------|
B |--17--17--17--------------------------------------------------------------------------------------|
G |--16b---------16r~-----------13b--(13)r-----------15-slow bend up---------------------------------|
D |-----------------------------------------13-(14)--------------------------------------------------|
A |--------------------------------------------------------------------------------------------------|
E |--------------------------------------------------------------------------------------------------|

Havent worked the other solos out yet so if you want them e-mail me 
on mad_4_1t@hotmail.com and ill sort them out for ya



Comments