The Darkness - I Believe In A Thing Called Love Solos Chords & Tabs

 

I Believe In A Thing Called Love Solos Chords & Tabs

The Darkness Chords & Tabs

Version: 1 Type: Tab 2 ratings
1 star 2 stars 3 stars 4 stars 5 stars
comments

I Believe In A Thing Called Love Solos Tab

this tab took ages to work out.  its pretty spot on but if you find 
anything wrong just modify it.  enjoy.

tabbed by james holder and steven thackwray



Solo 1
e |----15------15--------------16b~----------------------------------------|
b |-15b----15b----15----------------17-------------------16b---------------|
g |-------------------16-----------------13h-14p 13------------------------|
d |-------------------------------------------------14---------------------|
a |------------------------------------------------------------------------|
e |------------------------------------------------------------------------|

Solo 2
e |------------------------------------------------------------------------|
b |-------------12----12---------------------------------------------------|
g |--9~----11b13---13----13r--9-8-6-4--------------------------------------|
d |------------------------------------6/7-7--9----------------------------|
a |----------------------------------------------11~/9 /7h9-9-9--11-9-7-7--|
e |------------------------------------------------------------------------|

e |------------------------------------------------------------------------|
b |--------------------------------------14----14----14----12h14-----------|
g |-9---------------------14-14-14-14-14b---14----14----14-------12h14-----|
d |--9--6-6/7-9-9----------------------------------------------------------|
a |------------------------------------------------------------------------|
e |------------------------------------------------------------------------|
[ Tab from: http://www.guitartabs.cc/tabs/t/the_darkness/i_believe_in_a_thing_called_love_solos_tab.html ]
e |------------------------------------------------------------------------|
b |------------------------------------------------------18-18-19-21-------|
g |--------------------------------------------------9---------------------|
d |-14-16-14-----14-----------------------------------9--------------------|
a |-----------16----16---11-11--11/9-/7-h9--11-9-7-------------------------|
e |------------------------------------------------------------------------|
Solo 3
e |------------------------------------------------------------------------|
b |--14b--141214-----------------12------12------12------------------------|
g |--------------141214----------12------12------12------------------------|
d |--------------------14--12h14----12h14---12h14-----141214---------------|
a |---------------------------------------------------------141214---------|
e |---------------------------------------------------------------14-------|
play high e very fast strumming whilst putting on these fingers

e |---4-0-0-5-0-0-7-0-0-9-0-0-7-0-9-0-11-0-9-0-11-0-12-0-14-0-12-0-14-0-16-|
b |------------------------------------------------------------------------|
g |------------------------------------------------------------------------|
d |------------------------------------------------------------------------|
a |------------------------------------------------------------------------|
e |------------------------------------------------------------------------|

e |-17-0-19-0-16-0-17-0-24b------------------------------------------------|
b |------------------------------------------------------------------------|
g |------------------------------------------------------------------------|
d |------------------------------------------------------------------------|
a |------------------------------------------------------------------------|
e |------------------------------------------------------------------------|

e |------------------------------------------------------------------------|
b |------------------------------------------------------------------------|
g |------------------------------------------------------------------------|
d |------------------------------------------------------------------------|
a |------------------------------------------------------------------------|
e |------------------------------------------------------------------------|
Comments