The Darkness - Growing On Me Chords & Tabs

 

Growing On Me Chords & Tabs

The Darkness Chords & Tabs

Version: 2 Type: Tab 3 ratings
1 star 2 stars 3 stars 4 stars 5 stars
comments

Growing On Me Tab

Artist: The darkness
Title: Growing On Me
Tabbed by: pnk_rok_animal

This is just the rhythm, im sure you can figure out the 
lead stuff or find it in other tabs… use normal overdrive throughout 
and Drop-D tuning…i may have got the timings wrong and the number of 
strokes incorrect but this is just a guide, its a sweet song to play..
here we go…


Intro
E|----------------------------------------|
B|----------------------------------------|
G|----------------------------------------|
D|--7-77-5-55-4-4-44-540-540-40-----------|
A|--7-77-5-55-4-4-44-540-540-40-----------|
D|--7-77-5-55-4-4-44-540-540-40-----------|



Verse
E|----------------------------------------|
B|----------------------------------------|
G|----------------------------------------|
D|--000-77-99s0----000-77-99-77-5-4-0-----|
A|--000-77-99s0----000-77-99-77-5-4-0-----|
D|--000-77-99s0----000-77-99-77-5-4-0-----|

E|--------------------------------------------|
B|--------------------------------------------|
G|--------------------------------------------|
D|--000-77-99s0----7777777-5-4-0--5-4-0--4-0--|
A|--000-77-99s0----7777777-5-4-0--5-4-0--4-0--|
D|--000-77-99s0----7777777-5-4-0--5-4-0--4-0—-|


[ Tab from: http://www.guitartabs.cc/tabs/t/the_darkness/growing_on_me_tab_ver_2.html ]
Bridge
E|-----------------------------------------------------------------|
B|-----------------------------------------------------------------|
G|-----------------------------------------------------------------|
D|--55555555-4444-0000---55555555-4444-0000---55555555-4444-0000---|
A|--55555555-4444-0000---55555555-4444-0000---55555555-4444-0000---|
D|--55555555-4444-0000---55555555-4444-0000---55555555-4444-0000---|

E|-----------------------------------|
B|-----------------------------------|
G|-----------------------------------|
D|--7777--5-4-0--4-0-----------------|
A|--7777--5-4-0--4-0-----------------|
D|--7777--5-4-0--4-0-----------------|



Chorus
E|------------------------------------------------------------------|
B|------------------------------------------------------------------|
G|------------------------------------------------------------------|
D|-4444-5555-7777-0000---9999-5555-7777-0000--4444-5555-7777-0000---|
A|-4444-5555-7777-0000---9999-5555-7777-0000--4444-5555-7777-0000---|
D|-4444-5555-7777-0000---9999-5555-7777-0000--4444-5555-7777-0000---|

E|--------------------------------|
B|--------------------------------|
G|--------------------------------|
D|--777777------------------------|
A|--777777---5-4-0--5-4-0--4-0----|
D|--777777---5-4-0--5-4-0--4-0----|



Interlude before solo
E|----------------|
B|---88-7-5-777---|
G|---77-7-7-777---|
D|---77-7-7-777---|
A|----------------|
D|----------------|




That’s all the main rhythm parts, there is some different bits during 
the first solo but you should be able to make it up, then just chorus 
out over the last solo... listen to the song to figure out where 
all the riffs come in.
Comments