The Darkness - Growing On Me Chords & Tabs

 

Growing On Me Chords & Tabs

The Darkness Chords & Tabs

Version: 1 Type: Tab 1 rating
1 star 2 stars 3 stars 4 stars 5 stars
comments

Growing On Me Tab

   
###############################
#                             #
#     Song: Growing On Me     #
#     Artist: The Darkness    #
#  Album: Permission To Land  #
#                             #
###############################




h  = hammer      p  = pull off

^  = bend        ~  = let the note ring

^* = hit the note whilst bending string

/  = slide up to note 

\  = slide down to note



INTRO

  Dsus2                                                     A    G   A  D

|-----0---------0--|-----0---------0--|-----0---------0--|------333-----2-|
|---3--3------3--3-|---3--3------3--3-|---3--3------3--3-|-222--333-222-3-|
|--2-2--2----2-2---|--2-2--2----2-2---|--2-2--2----2-2---|-222------222-2-|
|-0------0---------|-0------0---------|-0------0---------|-222------222---|
|---------h4p------|---------h4p------|---------h4p------|------222-------|
|------------------|------------------|------------------|------333-------|





VERSE

  A F# A B               A F# A B    A5 G5 D5   A F# A B     A   G

|----------------------|----------------------|--------------5---3---|
|----------------------|----------------------|-22---2-44----5---3---|
|-22---2-44------------|-22---2-44----------7-|-22-4-2-44----6---4---|
|-22-4-2-44------------|-22-4-2-44---77-333-7-|----4---------7---5---|
|----4-----------------|----4--------77-555-5-|--------------7---5---|
|----------------------|-------------55-555---|--------------5---3---|


for the first verse play twice.
for the second verse play once.





BRIDGE

 Dsus2                                                      A

|-----0---------0--|-----0---------0--|-----0---------0--|------------|
|---3--3------3--3-|---3--3------3--3-|---3--3------3--3-|-2222-------|
|--2-2--2----2-2---|--2-2--2----2-2---|--2-2--2----2-2---|-2222-------|
|-0------0---------|-0------0---------|-0------0---------|-2222-------|
|---------h4p------|---------h4p------|---------h4p------|------------|
|------------------|------------------|------------------|------------|





CHORUS

 F#5  G   A   D                A    G   A  D
[ Tab from: http://www.guitartabs.cc/tabs/t/the_darkness/growing_on_me_tab.html ]
 |-----3---5---5-|          |------333-----2-|
 |-----3---5---5-|          |-222--333-222-3-|
 |-----4---6---7-|          |-222------222-2-|
 |-4---5---7---7-|          |-222------222---|
 |-4---5---7---5-|  x3      |------222-------|
 |-2---3---5---x-|          |------333-------|






FIRST SOLO

  ~~~~~~~~                    ~~
|-------------------------------------------------------------|
|-------------------------------------------------------------|
|----------------------------------------12h14p12-------------|
|-0----------0--0--2^2^0-----12-14p12-14^--------12-14^-14-12-|
|---------0h2-2p-2p-----12h14---------------------------------|
|-------------------------------------------------------------|



                       ~~~             ~~
|-------------------------17^-15-----------|
|-17^p15-17-17^p15h17-15--------19p15h17---|
|------------------------------------------|
|------------------------------------------|
|------------------------------------------|
|------------------------------------------|





SECOND SOLO

  ~~~                              ~~ ~~ ~~
|----------------------------------------------------------------------------|
|----------------------------------------------------------------------------|
|---------------------7-6h7p6------9--9--9--7-9^****-7h9p7h9-----------------|
|-0--0-2p0-0-2h4-2h4---------9p7-7--------------------------7h9p7h9----------|
|------------------------------------------------------------------7h9-9-7---|
|-------------------------------------------------------------------------10-|



  ~~                   ~~                  ~~  ~~  ~~
|----7----------------10--9h10p9-------------------------17-17-17-17-17--17---|
|--------------------------------12p10-10-17--17--17--15-17^------17^--19--19-|
|-7---9p7-7h9/11p9h11---------------------------------------------------------|
|-----------------------------------------------------------------------------|
|-----------------------------------------------------------------------------|
|-----------------------------------------------------------------------------|


                                                                    ~~~
|-17--17------------17-----------------------------------17-------------2-|
|---19--19--15h17h19--15h17p15h19p15h17p15h19p15h17p15h19--15h17h19\7^--3-|
|-----------------------------------------------------------------------2-|
|-----------------------------------------------------------------------0-|
|-------------------------------------------------------------------------|
|-------------------------------------------------------------------------|







	     ____
	    |    \
	    |  O  >
	    |  __/
	    |  |                   
	    |  |                
Tabbed By...|__|aZzA   aKa   ---{ Ian Parry }---
				 ~~~~~~~~~~~~~
Comments