The Darkness - Get Ur Hands Of My Woman Chords & Tabs

 

Get Ur Hands Of My Woman Chords & Tabs

The Darkness Chords & Tabs

Version: 1 Type: Tab 0 ratings
1 star 2 stars 3 stars 4 stars 5 stars
comments

Get Ur Hands Of My Woman Tab

   
GET YOUR HANDS OFF MY WOMEN – The Darkness

Intro:

e|-x--------------------x---------------|
B|-6br~~~~-------------(4)~~~~~---------|
G|-7br~~~~--------------5br-~~~~~-------|
D|-7br~~~~--------------5br-~~~~~-------|
A|-5br~~~~--------------3br-~~~~~-------|
E|-x~~~~----------------x---------------|


e|----------------------------------------------------------|
B|----------------------------------------------------------|
G|-7-7-----------5-5-0----------7-7-----------5-5--5--------|
D|-7-7--8-8-3-3--5-5-0--5-5/3---7-7--8-8-3-3--5-5--5--------|
A|-5-5--8-8-3-3--3-3-0--5-5/3---5-5--8-8-3-3--3-3--3-0-3-4--|
E|------6-6-1-1---------3-3/1--------6-6-1-1----------------|
Repeat (x2)

VERSE 1:

e|---------------------------------------------------------------------|
B|---------------------------------------------------------------------|
G|7-----7-----7-----7-----7---7---7-----7-----7-----7------------------|
D|--0-0---0-0---0-0---0-0---0---0---0-0---0-0---0-0---0--3/-5-5-3-3---|
A|-------------------------------------------------------3/-5-5-3-3---|
E|-------------------------------------------------------1/-3-3-1-1---|
repeat
or

ß---pm----à
-----------------|----------|--
----------etc...-|----------|--
--7-7-7-7-7------|----------|--
--7-7-7-7-7------|-3-5-5-3--|--
--5-5-5-5-5------|-3-5-5-3--|--
-----------------|-1-3-3-1--|--


BRIDGE:

e|-------------------------------------------------------|
B|-------------------------------------------------------|
G|-------------------------------------------------------|
D|-3-5-5-3-5--------------------------------3-5-5-3-5----|
A|-3-5-5-3-5--------------------------------3-5-5-3-5----|
E|-1-3-3-1-3--------------------------------1-3-3-1-3----|
	     I got no right...           ...her frame, she's not.....


Pre-chorus:

-------------------------------|--
-------------------------------|--
-------------------------------|--
-2-2-2-3-3-3-4-4-4-5-5-6-7-8-9-|--
-2-2-2-3-3-3-4-4-4-5-5-6-7-8-9-|--
-0-0-0-1-1-1-2-2-2-3-3-4-5-6-7-|--



CHORUS:

e|----------------------------------------------------------|
B|----------------------------------------------------------|
G|-7-7-----------5-5-0----------7-7-----------5-5--5--------|
D|-7-7--8-8-3-3--5-5-0--5-5/3---7-7--8-8-3-3--5-5--5--------|
A|-5-5--8-8-3-3--3-3-0--5-5/3---5-5--8-8-3-3--3-3--3-0-3-4--|
E|------6-6-1-1---------3-3/1--------6-6-1-1----------------|
[ Tab from: http://www.guitartabs.cc/tabs/t/the_darkness/get_ur_hands_of_my_woman_tab.html ]
e|----------------------------------------------------------|
B|----------------------------------------------------------|
G|-7-7-----------5-5-0----------7-7-----------5-5--5--------|
D|-7-7--8-8-3-3--5-5-0--5-5/3---7-7--8-8-3-3--5-5--5--------|
A|-5-5--8-8-3-3--3-3-0--5-5/3---5-5--8-8-3-3--3-3--3-0-3-4--|
E|------6-6-1-1---------3-3/1--------6-6-1-1----------------|


VERSE 2 (sligtly different to verse 1)

e|---------------------------------------------------------------------|
B|---------------------------------------------------------------------|
G|7-----7-----7-----7-----7---7---7-----7-----7-----7------------------|
D|--0-0---0-0---0-0---0-0---0---0---0-0---0-0---0-0---0--3/-5-5-3-3----|
A|-------------------------------------------------------3/-5-5-3-3----|
E|-------------------------------------------------------1/-3-3-1-1----|


e|-------------------------------------------------------------------|
B|-------------------------------------------------------------------|
G|-------------------------------------------------------------------|
D|-7-7-7-7-7-7-7-7-7-7-7-7-7-7-7-7-7-7-7-7-7-7-7-7-7-7-7-10-12-12-10-|  X2
A|-5-5-5-5-5-5-5-5-5-5-5-5-5-5-5-5-5-5-5-5-5-5-5-5-5-5-5-8--10-10-8--|
E|-------------------------------------------------------------------|


SOLO:

e|-----------------------------------------------------------------|
B|-----------------------------------------------------------------|
G|-3p0-----3p0-3p0-----3p0-3p0-----3p0-----3p0-3p0-----3p0-3p0-----|
D|-----3p0---------3p0---------3p0-----3p0---------3p0---------3p0-|
A|-----------------------------------------------------------------|
E|-----------------------------------------------------------------|

e|-----------------------------------------------------------------|
B|-----------------------------------------------------------------|
G|-4p0-----4p0-4p0-----4p0-4p0-----4p0-----4p0-4p0-----4p0-4p0-----|
D|-----3p0---------3p0---------3p0-----3p0---------3p0---------3p0-|
A|-----------------------------------------------------------------|
E|-----------------------------------------------------------------|


e|-6-----------------------------------------------------10--|
B|-3--3-3---3-3-3-3---5----6----7---8----9---10-11-12-13-13b-|
G|-5b-5-3---3-3-3-5b--7b---8b---9b--10b--11b-----------------|
D|--------5--------------------------------------------------|
A|-----------------------------------------------------------|
E|-----------------------------------------------------------|

Then pre-chorus

Then chorus x4


Intro/Main riff
verse x2
bridge
pre-chorus
chorus x2
verse x3
solo
pre-chorus
chorus x4

submitted by nick walton
Comments