The Dark - Disintegrate Chords & Tabs

 

Disintegrate Chords & Tabs

The Dark Chords & Tabs

Version: 1 Type: Tab 0 ratings
1 star 2 stars 3 stars 4 stars 5 stars
comments

Disintegrate Tab

   
-----------------------------------------------------------------
Disintegrate - The Dark
-----------------------------------------------------------------
Tabbed by: Dillon
Email: Angelic_oioi_upstart@yahoo.com

Tuning:Standard

Intro:
e|---------------------------------------------------------------|
B|---------------------------------------------------------------|
G|---9-----------------------------------------------------------|
D|--9----10---12---9--(Play this 8 times)------------------------|
A|-7----10---12---9----------------------------------------------|
E|-----8----10---7-----------------------------------------------|

Verse:
e|---------------------------------------------------------------|
B|---------------------------------------------------------------|
G|-9999----------------------------------------------------------|
D|-9999-10101010-7777-10101010-----------------------------------|
A|-7777 10101010-7777-10101010-----------------------------------|
E|-------8-8-8-8-5555--8-8-8-8-----------------------------------|
[ Tab from: http://www.guitartabs.cc/tabs/t/the_dark/disintegrate_tab.html ]
First Chorus:
e|---------------------------------------------------------------|
B|---------------------------------------------------------------|
G|---------------------------------------------------------------|
D|-9-7-9-7-97----------------------------------------------------|
A|-9-7-9-7-97--(Play this rapidly 4 times)-----------------------|
E|-7-5-7-5-75----------------------------------------------------|

Second Chorus:
e|---------------------------------------------------------------|
B|---------------------------------------------------------------|
G|-----------------------------------------9-7-9-----------------|
D|-9-7-9-7-97------------------------------9-7-9-999-111111111111|
A|-9-7-9-7-97--(Play this rapidly 4 times)-7-5-7-999-111111111111|
E|-7-5-7-5-75------------------------------------777--9-9-9-9-9-9|

Last Chorus:
e|---------------------------------------------------------------|
B|--------------------------------When he says back to the stars-|
G|-------------------------------------------9999----------------|
D|-9-7-9-7-97--------------------------------9999----------------|
A|-9-7-9-7-97--(Play this rapidly 4 times)---7777----------------|
E|-7-5-7-5-75----------------------------------------------------|

As for the solo, Thats for people who knows scales and theory and such
to figure out so please contribute if you can figure it out.

| / slide up
| \ slide down
| h hammer-on
| p pull-off
| ~ vibrato
| + harmonic
| x Mute note

#----------------------------------PLEASE NOTE---------------------------------#
#This file is the author's own work and represents their interpretation of the #
#song. You may only use this file for private study, scholarship, or research. #
#------------------------------------------------------------------------------#
Comments