The Cribs - Im Alright Me Chords & Tabs

 

Im Alright Me Chords & Tabs

The Cribs Chords & Tabs

Version: 1 Type: Bass Tab 0 ratings
1 star 2 stars 3 stars 4 stars 5 stars
comments

Im Alright Me Bass Tab

Artist:  The Cribs
Song:    I'm Alright Me
Album:   The New Fellas

G ----------------------------------|
D -----------------------5-5-5-5-5--|
A --3----------5-5-5-5-5------------|  x2
E ----33333333----------------------|

G -----------|
D -----------|
A --3---5----|
E ----3---3--|

G --------------------------------------------------------------------------|
D --------------------------------------------------------------------------|
A -33333333----------33333333----------33333333-00000000-55555555-----------|  x2
E ----------33333333----------33333333----------------------------33333333--|

G ----------------------------------|
D -----------------------5-5-5-5-5--|
A --3----------5-5-5-5-5------------|  x4
E ----33333333----------------------|
[ Tab from: http://www.guitartabs.cc/tabs/t/the_cribs/im_alright_me_btab.html ]
G -----------|
D -----------|
A --3---5----|
E ----3---3--|

G --------------------------------------------------|
D --------------------------------------------------|
A -3---5-------3---5-------3---5-------3---5--------|  x2
E -------3---5-------3---5-------3---5-------3---5--|

G -------------------------------|
D -------------------------------|
A -3333333333333333333333333333--|
E -------------------------------|

G --------------------------------------------------------------------------|
D --------------------------------------------------------------------------|
A -33333333----------33333333----------33333333-00000000-55555555-----------|  x2
E ----------33333333----------33333333----------------------------33333333--|

G -------------|
D --------5----|
A --3---5---3--|
E ----3--------|

Simple As That! Great Song By A Great Band!
Comments