The Cribs - Hey Scenesters Chords & Tabs

 

Hey Scenesters Chords & Tabs

The Cribs Chords & Tabs

Version: 1 Type: Bass Tab 0 ratings
1 star 2 stars 3 stars 4 stars 5 stars
comments

Hey Scenesters Bass Tab

   
-------------------------------------------------------------------------------
			    Hey Scenesters - The Cribs
-------------------------------------------------------------------------------

Tabbed By : Steven Gladman
e-mail: stevie.gladman@ntlworld.com

Tuning: E A D G


G|-----------------------------------------------------------------------------------|
D|-----------------------------------------------------------------------------------|
A|-----------------------------------------------------------------------------------|
E|--7--7--7-7--7-7--7-7-7--7-10--10-10-10-10-10--10--10-10--10-7--7--7-7--7-7--7-7-7-|

G|----------------------------------------------------------------------|
D|----------------------------------------------------------------------|
A|----------------------------------------------------------------------|
E|-3-3-3-3-3-3-3-3-3-3-3-3-3-3-3-3-5-5-5-5-5-5-5-5-5-5-5-5-5-5-5-5------|

G|-----------------------------------------------------------------------------------|
D|-----------------------------------------------------------------------------------|
A|-----------------------------------------------------------------------------------|
E|--7--7--7-7--7-7--7-7-7--7-10--10-10-10-10-10--10--10-10--10-7--7--7-7--7-7--7-7-7-|

G|----------------------------------------------------------------------|
D|----------------------------------------------------------------------|
A|----------------------------------------------------------------------|
E|-3-3-3-3-3-3-3-3-3-3-3-3-3-3-3-3-5-5-5-5-5-5-5-5-5-5-5-5-5-5-5-5------|

G|-----------------------------------------------------------------------------------|
D|-----------------------------------------------------------------------------------|
A|-----------------------------------------------------------------------------------|
E|--7--7--7-7--7-7--7-7-7--7-10--10-10-10-10-10--10--10-10--10-7--7--7-7--7-7--7-7-7-|

G|----------------------------------------------------------------------|
D|----------------------------------------------------------------------|
A|----------------------------------------------------------------------|
E|-3-3-3-3-3-3-3-3-3-3-3-3-3-3-3-3-5-5-5-5-5-5-5-5-5-5-5-5-5-5-5-5------|

G|---------------------------|
D|---------------------------|
A|--5--5--5------------------| X 4
E|----------5-6-7--7--7-7-7--|

G|---------------------------------|
D|---------------------------------|
A|---------------------------------| X 4
E|--3-3-3--3-3-3-3--7-7-7--7-7-7-7-|

G|-----------|
D|-----------|
A|-9-9--9-9--|
E|-----------|

G|-----------------------------------------------------------------------------------|
D|-----------------------------------------------------------------------------------|
A|-----------------------------------------------------------------------------------|
E|--7--7--7-7--7-7--7-7-7--7-10--10-10-10-10-10--10--10-10--10-7--7--7-7--7-7--7-7-7-|
[ Tab from: http://www.guitartabs.cc/tabs/t/the_cribs/hey_scenesters_btab.html ]
G|----------------------------------------------------------------------|
D|----------------------------------------------------------------------|
A|----------------------------------------------------------------------|
E|-3-3-3-3-3-3-3-3-3-3-3-3-3-3-3-3-5-5-5-5-5-5-5-5-5-5-5-5-5-5-5-5------|

G|-----------------------------------------------------------------------------------|
D|-----------------------------------------------------------------------------------|
A|-----------------------------------------------------------------------------------|
E|--7--7--7-7--7-7--7-7-7--7-10--10-10-10-10-10--10--10-10--10-7--7--7-7--7-7--7-7-7-|

G|----------------------------------------------------------------------|
D|----------------------------------------------------------------------|
A|----------------------------------------------------------------------|
E|-3-3-3-3-3-3-3-3-3-3-3-3-3-3-3-3-5-5-5-5-5-5-5-5-5-5-5-5-5-5-5-5------|

G|---------------------------|
D|---------------------------|
A|--5--5--5------------------| X 2
E|----------5-6-7--7--7-7-7--|

G|---------------------------------|
D|---------------------------------|
A|---------------------------------| X 4
E|--3-3-3--3-3-3-3--7-7-7--7-7-7-7-|

G|-----------|
D|-----------|
A|-9-9--9-9--|
E|-----------|

G|-----------------------------------------------------------------------------------|
D|-----------------------------------------------------------------------------------|
A|-----------------------------------------------------------------------------------|
E|--7--7--7-7--7-7--7-7-7--7-10--10-10-10-10-10--10--10-10--10-7--7--7-7--7-7--7-7-7-|

G|----------------------------------------------------------------------|
D|----------------------------------------------------------------------|
A|----------------------------------------------------------------------|
E|-3-3-3-3-3-3-3-3-3-3-3-3-3-3-3-3-5-5-5-5-5-5-5-5-5-5-5-5-5-5-5-5------|

G|-----------------------------------------------------------------------------------|
D|-----------------------------------------------------------------------------------|
A|-----------------------------------------------------------------------------------|
E|--7--7--7-7--7-7--7-7-7--7-10--10-10-10-10-10--10--10-10--10-7--7--7-7--7-7--7-7-7-|


G|----------------------------------------------------------------------|
D|----------------------------------------------------------------------|
A|----------------------------------------------------------------------|
E|-3-3-3-3-3-3-3-3-3-3-3-3-3-3-3-3-5-5-5-5-5-5-5-5-5-5-5-5-5-5-5-5------|

G|--------------------------------------------------------------------------|
D|-9-9-9--9-9-9--9-9-9--9-9-9--12-12-12--12-12-12--12-12-12-11-11-11-11-11--|
A|--------------------------------------------------------------------------|
E|--------------------------------------------------------------------------|



| /  slide up
| \  slide down
| h  hammer-on
| p  pull-off
| ~  vibrato
| +  harmonic
| x  Mute note
===============================================================================
Comments