The Coral - Eskimo Lament Chords & Tabs

 

Eskimo Lament Chords & Tabs

The Coral Chords & Tabs

Version: 1 Type: Tab 0 ratings
1 star 2 stars 3 stars 4 stars 5 stars
comments

Eskimo Lament Tab

   
	Em		  	  D			Am			Emaj9 (no3rd)

e|-----------0------------------------2-------------------------0------------------------------7-----------|
b|-------------0------------------------3-------------------------1------------------------------7---------|
g|--0-----------------------3--------------------------2------------------------------8--------------------|
d|--------------------------0----0---------x2------------2----------x2------------------9-----------x2-----|
a|-----2-----------x2----------------------------------0---------------------------------------------------|
e|--0---------------------------------------------------------------------------------7--------------------|
	     Em			D			C	       D		    Em
e|----------0----------------------2---------------------------0----------------2-----------------0--------|
b|------------0----------------------3----------------------------1---------------3-----------------0------|
g|--0---------------------3----------------------------0--------------3-----------------0------------------|
d|------------------------0----0---------x2---------------2-----------0--0---------------------------------|
a|-----2---------x2------------------------------------3------------------------------------2--------------|
e|--0-----------------------------------------------------------------------------------0------------------|

The chord progression for the interlude is as follows:
G---Am----D----Em----Am----D---
[ Tab from: http://www.guitartabs.cc/tabs/t/the_coral/eskimo_lament_tab.html ]
e|----------------------------------------------------------------------------------------------|
b|----3--5---3--5---3-----3---------------------------------------------------------------------|
g|---------------------4-----4--2--4--2--0-2----------------------------------------------------|
d|----------------------------------------------------------------------------------------------|
a|----------------------------------------------------------------------------------------------|
e|----------------------------------------------------------------------------------------------|

Em----D

e|----------------------------------------------------------------------------------------------|
b|----------------------------------------------------------------------------------------------|
g|-------2h4--2--0--2---------------------------------------------------------------------------|
d|----------------------------------------------------------------------------------------------|
a|----------------------------------------------------------------------------------------------|
e|----------------------------------------------------------------------------------------------|

Em----D

e|----------------------------------------------------------------------------------------------|
b|----------------------------------------------------------------------------------------------|
g|-------2h4--2--0--2---------------------------------------------------------------------------|
d|----------------------------------------------------------------------------------------------|
a|----------------------------------------------------------------------------------------------|
e|----------------------------------------------------------------------------------------------|

On the verses this time, It’s the same chords, but they are strummed:

Em----D-----Am-----Emaj9----
Em----D----C--D--Em----

X2


Then the interlude comes in again:

G---Am----D----Em----Am----D---

And the song finishes:

e|----------------------------------------------------------------------------------------------|
b|----3--5---3--5---3-----3------------------------------------------------------------------|
g|---------------------4-----4--2--4--2--0-2----------------------------------------------|
d|----------------------------------------------------------------------------------------------|
a|----------------------------------------------------------------------------------------------|
e|----------------------------------------------------------------------------------------------|


And a single strum of Em….

Shout out to my buddy Lonce, who insisted I tab this!!

QWERTY YUIOP
Comments