The Cops - Foxtrot Yankee Chords & Tabs

 

Foxtrot Yankee Chords & Tabs

The Cops Chords & Tabs

Version: 1 Type: Tab 0 ratings
1 star 2 stars 3 stars 4 stars 5 stars
comments

Foxtrot Yankee Tab

   
The Cops are a band from Australia, and have just released their
new album, Stomp on Tripwires. 

-----------------------------------------------------------------
FOXTROT YANKEE - The Cops
-----------------------------------------------------------------
Tabbed by: Ben Turville
Email: bturville@hotmail.com

Tuning: STANDARD (EADGBE)

Main Riff:
e|---------------------------------------------------------------|
B|---------------------------------------------------------------|
G|-2-2-2---------------------------------------------------------|  
D|-2-2-2--2--3-3-3-3-3-3-3-3---2---------------------------------|
A|-0-0-0--2--3-3-3-3-3-3-3-3---2---------------------------------|
E|--------0--1-1-1-1-1-1-1-1---0---------------------------------|

Verse Riff:
e|---------------------------------------------------------------|
B|---------------------------------------------------------------|
G|---------------------------------------------------------------|  
D|---------------------------------------------------------------|
A|-0-0-0---------------------------------------------------------|
E|--------0--1-1-1-1-1-1-1-1---0---------------------------------|

Pre-Chorus:

e|---------------------------------------------------------------|
B|---------------------------------------------------------------|
G|---------------------------------------------------------------|
D|-2-2-2-2-3-3-3-3-----------------------------------------------|
A|-2-2-2-2-3-3-3-3-----------------------------------------------|
E|-0-0-0-0-1-1-1-1-----------------------------------------------|
PM . . . . . . . .

Pre-Solo

e|---------------------------------------------------------------|
B|---------------------------------------------------------------|
G|-2-------------------------------------------------------------|
D|-2---LET NOTE FEEDBACK-----------------------------------------|
A|-0-------------------------------x\\\\\\\----------------------|
E|---------------------------------x\\\\\\\----------------------|

Solo
[ Tab from: http://www.guitartabs.cc/tabs/t/the_cops/foxtrot_yankee_tab.html ]
Guitar 1:
e|-------------------------------------/5-8-5-8-5-8-5-5-8-5-8----|
B|---------------------------------------------------------------|
G|--7b9----5-7b9r7b9r7b9r7b9r7b9r7-5-----------------------------|  
D|-------7---------------------------7---------------------------|
A|---------------------------------------------------------------|
E|---------------------------------------------------------------|

e|-8b10r8-5\-----------------------------------------------------|
B|---------------------------------------------------------------|
G|--------------------------5-7b9r7-5----------------------------|
D|----------------------5-7-----------7\-------------------------|
A|------------------5-7------------------------------------------|
E|--------------5-8----------------------------------------------|

Guitar 2:
e|---------------------------------------------------------------|
B|---------------------------------------------------------------|
G|-2-2-2---------------------------------------------------------|  
D|-2-2-2--2--3-3-3-3-3-3-3-3---2---------------------------------|  x8
A|-0-0-0--2--3-3-3-3-3-3-3-3---2---------------------------------|
E|--------0--1-1-1-1-1-1-1-1---0---------------------------------|

Bridge:

GUITAR 1:
e|---------------------------------------------------------------|
B|---------------------------------------------------------------|
G|---------------------------------------------------------------|
D|---------------------------------------------------------------|
A|-0-0-1-3-1-0-1-0-----------------------------------------------|
E|---------------------------------------------------------------|
  (Play four times, then come in with Guitar 2)

GUITAR 2:
e|---------------------------------------------------------------|
B|---------------------------------------------------------------|
G|---------------------------------------------------------------|
D|-7--7--8--10-8--7--8--7----------------------------------------|
A|-5--5--6--8--6--5--6--5----------------------------------------|
E|-5--5--6--8--6--5--6--5----------------------------------------|

End on:

e|---------------------------------------------------------------|
B|---------------------------------------------------------------|
G|---------------------------------------------------------------|
D|-7-------------------------------------------------------------|
A|-5-------------------------------------------------------------|
E|-5-------------------------------------------------------------|


Key:
| / slide up
| \ slide down
| h hammer-on
| p pull-off
| ~ vibrato
| + harmonic
| x Mute note
| x\ Pick Slide
Comments