The Color Morale - Close Your Eyes And Look Away Chords & Tabs

 

Close Your Eyes And Look Away Chords & Tabs

The Color Morale Chords & Tabs

Version: 1 Type: Tab

Close Your Eyes And Look Away Tab

   
-------------------------------------------------------------------------------
			                    CLOSE YOUR EYES AND LOOK AWAY - The Color Morale
-------------------------------------------------------------------------------
Tabbed by: Mike
Email: mdgorczyca@gmail.com

I couldn't figure out how to put palm mutes in but it's pretty obvious where they are. 

This is completely by ear so some things may not be exact. 

Tuning: Drop D

e|---------------------------------------------------------------------------|
B|---------------------------------------------------------------------------|
G|---------------------------------------------------------------------------|
D|-1-111-111-111-111-111-111-111-111-12p0-0-8p0-----5p0-0--------------------|   x2
A|-1-111-111-111-111-111-111-111-111-----------------------3h5---------------|
D|-1-111-111-111-111-111-111-111-111------------000--------3h5---------------|

e|---------------------------------------------------------------------------|
B|---------------------------------------------------------------------------|
G|-3-333-333-333-333-333-333-333-333---------------------------Last Time-----|
D|-1-111-111-111-111-111-111-111-111-12p0-0-8p0------5p0-0------|-12\--------|   x2
A|-1-111-111-111-111-111-111-111-111------------------------3h5-|-12\--------|
D|-1-111-111-111-111-111-111-111-111-----------000----------3h5-|-12\--------|

e|---------------------------------------------------------------------------|
B|---------------------------------------------------------------------------|
G|-33-33~-33-33~--|----------------------------6-----------------------------|
D|-11-11~-11-11~--|----------------------------5-----------------------------| 
A|-11-11~-11-11~--|---------1---------------1--------------------------------|
D|-11-11~-11-11~--|-1h4-1h4---4p1-0-0-0-1h4----------------------------------|
[ Tab from: http://www.guitartabs.cc/tabs/t/the_color_morale/close_your_eyes_and_look_away_tab.html ]
Tremelo pick these notes
e|---------------------------------------------------------------------------|
B|-------13------15------13------15-------------17b~-------------------------|
G|-14-12---14-12---14-12---14-12----14~-12~-14~------------------------------|
D|---------------------------------------------------------------------------|
A|---------------------------------------------------------------------------|
D|---------------------------------------------------------------------------|
 
e|---------------------------------------------------------------------------|
B|---------------------------------------------------------------------------|
G|-333-3333-333-3333-3---------10s12-12-12-12s14-14-14-14s15-----------------|
D|-111-1111-111-1111-1---x5----10s12-12-12-12s14-14-14-14s15-----------------| 
A|-111-1111-111-1111-1---------8s-10-10-10-10s12-12-12-12s13-----------------|
D|-111-1111-111-1111-1-------------------------------------------------------|
       
Chorus Chords (Use same chords for stacatto part after chorus)

e|---------------------------------------------------------------------------|
B|---------------------------------------------------------------------------|
G|------------------------------------------------------10-------------------|
D|-1-10-8-3-|---------------------------------------7-8----8-7---------------|
A|-1-10-8-3-|-----1------88888-666-----------88888---------------------------|
D|-1-10-8-3-|-1-1--4p1p0-55555-333-0-0-4p1p0-55555-------------Chorus Again--|

e|---------------------------------------------------------------------------|
B|---------------------------------------------------------------------------|
G|-333-3-3~------------------------------------------------------------------|
D|-111-1-1~------------------------------------------------------------------|
A|-111-1-1~-----Not exact, but you should be able to figure out the pattern.-|
D|-111-1-1~--000-0000-000-0000-0-1p0-00-1p0-00-1p0-00-1p-00-11-111-11-1111-1-|

Hope this helps. And like I said, not everything is exact but it sounds close enough so, enjoy.
Questions - comments - mdgorczyca@gmail.com


************************************

| /   slide up
| \   slide down
| h   hammer-on
| p   pull-off
| ~   vibrato
| +   harmonic
| x   Mute note
| b   Bend
| pb  Pre-bend
| br  Bend release
| pbr Pre-bend release
| brb Bend release bend

************************************