The Click Five - Just The Girl Chords & Tabs

 

Just The Girl Chords & Tabs

The Click Five Chords & Tabs

Version: 1 Type: Bass Tab

Just The Girl Bass Tab

Artist:	The Click Five
Title:	Just The Girl

intro and verses (play two time for verses)

G---------------------------------------------------------------------|
D-------------------2-2-2-2-0-0-0-0-----------------2-2-2-2-0-0-0-0---|
A---0-0-0-0-0-0-0-0-----------------0-0-0-0-0-0-0-0-------------------|
E---------------------------------------------------------------------|

you play this before the chorus

G-------------------|
D-------------------|
A---2-5-5-5-5-5-5---|
E-------------------|

the chorus

G---------------------------------------------------------------------|
D-----------2-2-2-2-1-1-1-1-0-0-0-0-----------------------------------|
A---0-0-0-0-------------------------0-0-0-0-0-0-0-0-------------------|
E---------------------------------------------------5-5-5-5-5-5-5-5---|
[ Tab from: http://www.guitartabs.cc/tabs/t/the_click_five/just_the_girl_btab.html ]
G-----------------------------------------------------------------------|
D-----------2-2-2-2-1-1-1-1-0-0-0-0-------------------------------------|
A---0-0-0-0-------------------------2-2-2-2-2-2-2-2-----------------4---|
E---------------------------------------------------2-2-2-2-2-2-2-2-----|

G---------------------------------------------------------------------|
D-------------------2-2-2-2-0-0-0-0-----------------2-2-2-2-0-0-0-0---|
A---0-0-0-0-0-0-0-0-----------------0-0-0-0-0-0-0-0-------------------|
E---------------------------------------------------------------------|

you play the verses and chorus twice and then,

bridge

G---------------------------------------------------------------------|
D-------------------0-0-0-0-0-0-0-0-----------------2-2-2-2-2-2-2-2---|
A-----------------------------------2-2-2-2-2-2-2-2-------------------|
E---2-2-2-2-2-2-2-2---------------------------------------------------|

do that twice and do the verses and chorus, and you finish