The Classic Crime - Fight Chords & Tabs

 

Fight Chords & Tabs

The Classic Crime Chords & Tabs

Version: 1 Type: Tab 0 ratings
1 star 2 stars 3 stars 4 stars 5 stars
comments

Fight Tab

   
The Classic Crime - "The Fight"
From the album "Albatross"

Tabbed by BKSTaxMan


Tuning: Drop Db
  x = Mute (Different than palm mutes.  Used to indicate harmonics in chorus
            and verses.  For the most part just lightly rest finger over the
            last frets played or, on some, the next ones about to be played
            to get the right harmonics...use the song to reference)
  / = Slide Up
  \ = Slide Down
  h = Hammer On
  p = Pull Off
  * = Palm Mute


Intro/Chorus/Post-Solo Break:

Eb|-----------------------------------------|
Bb|-----------------------------------------|
Gb|--------9-9-9-9-9-9/11----9-9-9-9-9-9/11-|
Db|-xxx-4-4x-x-x-x-x-x-x--4-4x-x-x-x-x-x-x--|
Ab|-xxx-4-47-7-7-7-7-7/9--4-47-7-7-7-7-7/9--|
Db|-xxx-4-4---------------4-4---------------|

Eb|--------------------------------------------------------------|    Guitar 2 alternative
Bb|--------------------------------------------------------------|
Gb|-----6-6-6-6-6-6/9------4-4-4-4/6\4\2-    (Gb|-4-4-4-4h6p4-2)-|
Db|-0-0-x-x-x-x-x-x-x--2-2-x-x-x-x-x-x-x-    (Db|----------------|
Ab|-0-0-4-4-4-4-4-4/7--2-2-2-2-2-2/4\2\0-    (Ab|----------------|
Db|-0-0----------------2-2---------------------------------------|


[After the 1st Chorus:]
Eb|----------------------------|
Bb|----------------------------|
Gb|----------------------------|
Db|4-4-xx-4-4-xxxxx-4-4-xx-4-4-|
Ab|4-4-xx-4-4-xxxxx-4-4-xx-4-4-|
Db|4-4-xx-4-4-xxxxx-4-4-xx-4-4-|


Verse:
(Lots of scratchy, distorted, harmonic goodness...listen to the
song while playing, and it should all make sense)

Eb|---------------------------------------------------------|
Bb|---------------------------------------------------------|
Gb|---------------------------------------------------------|
Db|-4---xxxxxxx4-44---xxxxxxx9-99---xxxxxxx7-77-xxx0-00-xxx-| (x2)
Ab|-4---xxxxxxx4-44---xxxxxxx9-99---xxxxxxx7-77-xxx0-00-xxx-|
Db|-4---xxxxxxx4-44---xxxxxxx9-99---xxxxxxx7-77-xxx0-00-xxx-|

Second half of Verse:

Guitar 2 (Rhythm)
(Palm mute both the up and downstroke to get the right speed on this)
Eb|--------------------------------      ---------------------------------|
Bb|--------------------------------      ---------------------------------|
Gb|--------------------------------      ---------------------------------|
Db|44444444444444440000000000000000 (x3) -77777777777777772222222222222222
Ab|44444444444444440000000000000000      -77777777777777772222222222222222
Db|44444444444444440000000000000000      -77777777777777772222222222222222
   ********************************       ************************

Guitar 1 (Lead)
Eb|--------------------------------      -------------------------------------|
Bb|--------------------------------      --------------(These too =P VVV)-----|
Gb|-------(These are "11"s VVV)----      ------------------9999999/1111111111-|
Db|66666677777777779999991111111111 (x3) -7777777777777777-xxxxxxx-xxxxxxxxx--|
Ab|--------------------------------      ------------------7777777/999999999--|
Db|--------------------------------      -------------------------------------|
   ********************************       ****************

Solo:
(Now for the fun stuff...
 For the first part here, just bar the 14th fret on the 2nd, 3rd and 4th
 strings and use that as the top of your hammer offs...relatively easy lick,
 but it sounds great!)
[ Tab from: http://www.guitartabs.cc/tabs/t/the_classic_crime/fight_tab.html ]
Guitar 1
Eb|------------------------------------------------|
Bb|------------17p14-------------------17p14-------|
Gb|------16p14-------16p14-------16p14-------16p14-|
Db|16p14-------------------16p14-------------------|
Ab|------------------------------------------------|
Db|------------------------------------------------|

Eb|---------------------------------------------|
Bb|------------17p14-------------------17p14----|
Gb|------16p14-------16p14-------16p14-------16-|
Db|16p14-------------------16p14----------------|
Ab|---------------------------------------------|
Db|---------------------------------------------|


Eb|---------------------------------------|
Bb|---------------------------------------|
Gb|16-16-16--14-14-14--18-18-18--16-16-16-|
Db|---------------------------------------|
Ab|---------------------------------------|
Db|---------------------------------------|
   ^V These two parts harmonize in the studio recording.
Eb|---------------------------------------|
Bb|---------------------------------------|
Gb|14-14-14--11-11-11--18-18-18--16-16-16-|
Db|---------------------------------------|
Ab|---------------------------------------|
Db|---------------------------------------|


(Not exactly sure on this one...little too much fx to tell)
Eb|-------------------------------------------|
Bb|---14-----------------------14-14----------|
Gb|14---13-13-13-13-13-1314-14-------13-13-14-|
Db|-------------------------------------------|
Ab|-------------------------------------------|
Db|-------------------------------------------|

Eb|--------------------------------------------------|
Bb|-10-9--10p9-10/12-10--12p10-12/14-12--14p12-14/17-|
Gb|--------------------------------------------------|
Db|--------------------------------------------------|
Ab|--------------------------------------------------|
Db|--------------------------------------------------|
   ^V These two parts also harmonize in the studio recording.
Eb|---------------------------------------------------|
Bb|---------------------------------------------------|
Gb|13-11--13p11-13/14-13--14p13-14/16-14--16p14-16/18-|
Db|---------------------------------------------------|
Ab|---------------------------------------------------|
Db|---------------------------------------------------|

Guitar 2:
Eb|------------------------------------------------|
Bb|------------------------------------------------|
Gb|------------------------------------------------|
Db|44\---4444\---4440-0-0-0-0-0-0-02-2-2-2-2-2-2-2-| (x2)
Ab|44\---4444\---4440-0-0-0-0-0-0-02-2-2-2-2-2-2-2-|
Db|44\---4444\---4440-0-0-0-0-0-0-02-2-2-2-2-2-2-2-|
   *     ***     ***    * * * * * *  * * * * * * *

Final Chorus, Guitar 1:
(Guitar 2 stays the same, but the Lead harmonizes on some small variations
Eb|--------------------------------------------------|
Bb|--------------------------------------------------|
Gb|----13-13-13-13-13-13/14-----13-13-13-13-13-13/14-|
Db|-4-4x--x--x--x--x--x--x---4-4x-x-x-x-x-x-x--------|
Ab|-4-411-11-11-11-11-11/12--4-411-11-11-11-11-11/12-|
Db|-4-4----------------------4-4---------------------|

Eb|-----------------------------------------------------|
Bb|-----------------------------------------------------|
Gb|----9-9-9-9-9-9/11-----------------------------------|
Db|-0-0x-x-x-x-x-x-x--xxx2-2-xxx2-2-xxx2-2-xxx2-2-xxx4--|
Ab|-0-07-7-7-7-7-7/9--xxx2-2-xxx2-2-xxx2-2-xxx2-2-xxx4--|
Db|-0-0---------------xxx2-2-xxx2-2-xxx2-2-xxx2-2-xxx4--|


End (after crazy, untabbable build-up) on:

Guitar 1:     Guitar 2:
Eb|17-17\     Eb|14-14\
Bb|------     Bb|------|
Gb|------     Gb|------|
Db|------     Db|------|
Ab|------     Ab|------|
Db|------     Db|------|


So that's that.  Definitely my favorite song of theirs so far.

This is my first tab so rate it and all that good stuff if you can.
Leave a comment too if you see something that doesn't seem quite right
or if you hear something different than i did...always open to feedback.

Peace.
Comments