The Classic Crime - Coldest Heart Chords & Tabs

 

Coldest Heart Chords & Tabs

The Classic Crime Chords & Tabs

Version: 2 Type: Tab 0 ratings
1 star 2 stars 3 stars 4 stars 5 stars
comments

Coldest Heart Tab

Song: The Coldest Heart
Band: The Classic Crime
Album: Albatross

This is a very easy tab for those of you that think it's hard.
Tuning: Dropped D (DADGBE)

Intro/Verse 1

E-------------------------------|
B-------------------------------|
G-------------------------------|   Complete this part twice through
D-10-----5-----3-----10-----8---|
A-10-----5-----3-----10-----8---|
D-10x8---5x8---3x8---10x4---8x4-|

Pre-Chorus

E-------------------------------|
B-------------------------------|
G-------------------------------|   Complete this part twice through
D-3-----6-----10-----8----------|   but on the last 8th fret power chord
A-3-----6-----10-----8----------|   just play until he sings into the chorus.
D-3x4---6x4---10x4---8x4--------|

Chorus

Guitar 1

E--------------------------------|
B--------------------------------|
G--------------------------------|   Complete this part twice or play
D-3-----6-----10-----8-----------|   the Guitar 2 part.
A-3-----6-----10-----8-----------|
D-3x8---6x8---10x8---8x8---------|

Guitar 2

E---------------------------------|
B---------------------------------|
G-8-7---8-7---8-7-8-7---8-7---8-7-|  Complete this part four times through.
D-----8-----8---------8-----8-----|
A---------------------------------|
D---------------------------------|

Post Chorus
[ Tab from: http://www.guitartabs.cc/tabs/t/the_classic_crime/coldest_heart_tab_ver_2.html ]
E---------------------------------|
B---------------------------------|
G---------------------------------|   Just listen to it...
D-3-----6-------------------------|
A-3-----6-------------------------|
D-3x1---6x1-----------------------|

Intro to Verse 2

E---------------------------------|
B---------------------------------|
G---------------------------------|   Listen to the strum pattern...very easy
D-10------------------------------|
A-10------------------------------|
D-10x16---------------------------|

Verse 2 is the same as Verse 1

Pre-Chorus after Verse 2 is the same as the Pre-Chorus before Verse 1.

Chorus is the same as the first chorus.

Post Chorus is the same as the first Post Chorus.

Bridge

E---------------------------------|
B---------------------------------|
G---------------------------------|    Play this through twice and then
D-10-----5-----3-----6------------|    change the times played per chord
A-10-----5-----3-----6------------|    as much as necessary... it's too hard
D-10x5---5x5---3x5---6x5----------|    to count how many times he plays it...

Chorus is the same just played twice though

Outro

E---------------------------------|
B---------------------------------|
G---------------------------------|     Play it the way it goes :)
D-10-----8-----3-----6------------|
A-10-----8-----3-----6------------|
D-10x6---8x6---3x6---6x6----------|

Thanks for reading my tab!!!
Comments