The Civil Wars - Dance Me To The End Of Love Chords & Tabs

 

Dance Me To The End Of Love Chords & Tabs

The Civil Wars Chords & Tabs

Version: 1 Type: Chords

Dance Me To The End Of Love Chords

   
this song is a LEONARD COHEN cover

standerd tunning capo on 5th OR 6th fret depending on how hi you can sing
so whatever fret the capo is on that would be where the numbers/tabs start

CHORDS

|-0---0---0--|
|-1---0---0--|
|-2---0---2--|
|-2---2---1--|
|-0---2---2--|
|-0---0---0--|
  Am  Em  B7        

intro
|------------------------------------------|
|------------------------------------------|
|-7/5--7-5-7--4/5-4--5-4-5--2/4-2--4-2-4-2-|
|-9/7--9-7-9--5/7-5--7-5-7--4/5-4--5-4-5-4-|
|------------------------------------------|
|------------------------------------------|

Em
[ Tab from: http://www.guitartabs.cc/tabs/t/the_civil_wars/dance_me_to_the_end_of_love_crd.html ]
Am                             Em
Dance me to your beauty with a burning violin 
Am                                  Em
Dance me through the panic 'til I'm gathered safely in 
Am                               Em
Lift me like an olive branch and be my homeward dove 
B7                   Em
Dance me to the end of love 
B7                   Em
Dance me to the end of love 
Am                                 Em
Oh let me see your beauty when the witnesses are gone 
Am                          Em
Let me feel you moving like they do in Babylon 
Am                         Em
Show me slowly what I only know the limits of 
B7                     Em
Dance me to the end of love 
B7                     Em
Dance me to the end of love 

|------------------------------------------|
|------------------------------------------|
|-7/5--7-5-7--4/5-4--5-4-5--2/4-2--4-2-4-2-|
|-9/7--9-7-9--5/7-5--7-5-7--4/5-4--5-4-5-4-|
|------------------------------------------|
|------------------------------------------|

Em

Am                           Em
Dance me to the wedding now, dance me on and on 
Am                         Em
Dance me very tenderly and dance me very long 
Am                                       Em
We're both of us beneath our love, we're both of us above 
B7                   Em
Dance me to the end of love 
B7                   Em
Dance me to the end of love 

|------------------------------------------|
|------------------------------------------|
|-7/5--7-5-7--4/5-4--5-4-5--2/4-2--4-2-4-2-|
|-9/7--9-7-9--5/7-5--7-5-7--4/5-4--5-4-5-4-|
|------------------------------------------|
|------------------------------------------|

Em