The Civil Wars - Barton Hollow Chords & Tabs

 

The Civil Wars Chords & Tabs

Version: 1 Type: Tab 0 ratings
1 star 2 stars 3 stars 4 stars 5 stars
comments

Barton Hollow Tab

Band: The Civil Wars
Album: Barton Hollow
Track: Barton Hollow
Tuning: Drop D

Intro

E|------------|
B|--3------3--|
G|--2------2--|
D|--0------0--|
A|--0------0--|
D|--0------0--|

Verse

|---------------------------|--------------------------|
|-3----3---3-3--3---3-3---3-|-3----3---3-3--3---3-3---3|
|-2----2---2-2--2---2-2---2-|-2----2---2-2--2---2-2---2|
|-x----0---0-0--x---0-3b4-0-|-x----0---0-0--x---0-3b4-0|
|-3b5--0---0-0--3b5-0-0---0-|-3b5--0---0-0--3b5-0-0---0|
|-0----0---0-0--0---0-0---0-|-0----0---0-0--0---0-0---0|

"I'm a dead man walking here. That's the least of all my fears."
|---------------------------|--------------------------|
|-3----3---3-3--3---3-3---3-|-3----3---3-3--3---3-3---3|
|-2----2---2-2--2---2-2---2-|-2----2---2-2--2---2-2---2|
|-x----0---0-0--x---0-3b4-0-|-x----0---0-0--x---0-3b4-0|
|-3b5--0---0-0--3b5-0-0---0-|-3b5--0---0-0--3b5-0-0---0|
|-0----0---0-0--0---0-0---0-|-0----0---0-0--0---0-0---0|

"Underneath the water. Oh, please forgive me father."
|---------------------------|--------------------------|
|-3----3---3-3--3---3-3---3-|-3----3---3-3--3---3-3---3|
|-2----2---2-2--2---2-2---2-|-2----2---2-2--2---2-2---2|
|-x----0---0-0--x---0-3b4-0-|-x----0---0-0--x---0-3b4-0|
|-3b5--0---0-0--3b5-0-0---0-|-3b5--0---0-0--3b5-0-0---0|
|-0----0---0-0--0---0-0---0-|-0----0---0-0--0---0-0---0|

"Ain't going back to Barton Hollow..."
|---|
|-3-|
|-2-|
|-0-|
|-0-|
|-0-|

Bridge
[ Tab from: http://www.guitartabs.cc/tabs/t/the_civil_wars/barton_hollow_tab.html ]
"Miles and miles in my bare feet. Still can't lay me down to sleep."
|--------------------------------|-----------------------------------|
|-3------------------3-3-3---3-3-|-3-----------------------3-3-3--3-3|
|-3------------------3-3-3---3-3-|-2-----------------------2-2-2--2-2|
|-3------------------3-3-3---3-3-|-0-----------------------0-0-0--0-0|
|-1------------------1-1-1---1-1-|-0-----------------------0-0-0--0-0|
|--------------------------------|-0-----------------------0-0-0--0-0|

"If I die before I wake, I know the Lord my soul won't...
|--------------------------------|-----------------------|
|-3------------------3-3-3---3-3-|-2-----------------2---|
|-3------------------3-3-3---3-3-|-2-----------------2---|
|-3------------------3-3-3---3-3-|-2-----------------2---|
|-1------------------1-1-1---1-1-|-0-----------------0---|
|--------------------------------|-----------------------|

Take."
|---------------------------|--------------------------|
|-3----3---3-3--3---3-3---3-|-3----3---3-3--3---3-3---3|
|-2----2---2-2--2---2-2---2-|-2----2---2-2--2---2-2---2|
|-x----0---0-0--x---0-3b4-0-|-x----0---0-0--x---0-3b4-0|
|-3b5--0---0-0--3b5-0-0---0-|-3b5--0---0-0--3b5-0-0---0|
|-0----0---0-0--0---0-0---0-|-0----0---0-0--0---0-0---0|

"I'm a dead man walking. I'm a dead man walking here. Keep
|---------------------------|--------------------------|
|-3----3---3-3--3---3-3---3-|-3----3---3-3--3---3-3---3|
|-2----2---2-2--2---2-2---2-|-2----2---2-2--2---2-2---2|
|-x----0---0-0--x---0-3b4-0-|-x----0---0-0--x---0-3b4-0|
|-3b5--0---0-0--3b5-0-0---0-|-3b5--0---0-0--3b5-0-0---0|
|-0----0---0-0--0---0-0---0-|-0----0---0-0--0---0-0---0|

Outro

Walking, running, running for miles
|------------------------------------------------|  |---------------------------------------------|
|------------------------------------------------|  |---------------------------------------------|
|-7--7--7--7--5--5--5--5--4--4--4--4--3--3--3--3-|x4|--2--2--2--2--3--3--3--3--2--2--2--2--2------|
|-7--7--7--7--5--5--5--5--4--4--4--4--3--3--3--3-|  |--2--2--2--2--2--2--2--2--2--2--2--2--2------|
|-5--5--5--5--3--3--3--3--2--2--2--2--1--1--1--1-|  |--0--0--0--0--0--0--0--0--0--0--0--0--0------|
|------------------------------------------------|  |---------------------------------------------|


"Ain't going back to Barton Hollow..."
|---|
|-3-|
|-2-|
|-0-|
|-0-|
|-0-|
Comments