The City On Film - Give Me Good News Chords & Tabs

 

Give Me Good News Chords & Tabs

The City On Film Chords & Tabs

Version: 1 Type: Tab 0 ratings
1 star 2 stars 3 stars 4 stars 5 stars
comments

Give Me Good News Tab

   
Artist: The City on Film
Track: Give me good news
Album: I'd rather be wine drunk
Tabber: Andrew Biles

Not too many parts to this one which is nice.  It goes into 3/4 timing when you get the
parts with the movement on the A string and the open D but other than that it's pretty
easy.  The *s in this first pattern mean harmonics, but I've written that underneath as
well.  He seems to switch between the D & G strings and A & D for the harmonics, so I've
just included all three so you can do as you please.  Other than those couple of bits
there shouldn't really be any problems.

Drop D (D, A, D, G, B, e)

|-----------------------------------------------|
|-----------------------------------------------|
|-------0-----------2----------0-------------5*-|
|-----4---4-------4---4------4---4-----------5*-|
|---0-------0---0----------0-------0---------5*-|
|-0-----------0----------0-----------4-4-0-0----|
                                             ^harmonics

[ Tab from: http://www.guitartabs.cc/tabs/t/the_city_on_film/give_me_good_news_tab.html ]
|-------------------------|-2-|
|-------------------------|-3-|
|---------------2-----2---|-0-|
|---------------0-----0---|-0-|
|-4-4-4-2-2-2-0-0-0-0-0-0-|---|
|-0-0-0-0-0-0-0-0-0-0-0-0-|---|
                            ^strum


|-----------------------------------------------|
|-----------------------------------------------|
|-------0-----------2----------0-------------5*-|
|-----4---4-------4---4------4---4-----------5*-|
|---0-------0---0----------0-------0---------5*-|
|-0-----------0----------0-----------4-4-0-0----|


|-------------------------|-2-|
|-------------------------|-3-|
|---------------2-----2---|-0-|
|---------------0-----0---|-0-|
|-4-4-4-2-2-2-0-0-0-0-0-0-|---|
|-0-0-0-0-0-0-0-0-0-0-0-0-|---|


|----------------------------|
|----------------------------|
|----------------------------|
|----------------------------|
|-5-5-5-7-7-7-10-10-10-9-9-9-|
|-0-0-0-0-0-0-0--0--0--0-0-0-|


|---------------------|
|---------------------|
|---------------------|
|---------------------|
|---------------------|
|-5----4----2----0----|

any questions? andrewbiles@hotmail.com
Comments