The Chameleons - Paper Tigers Chords & Tabs

 

Paper Tigers Chords & Tabs

The Chameleons Chords & Tabs

Version: 1 Type: Bass Tab

Paper Tigers Bass Tab

#----------------------------------PLEASE NOTE---------------------------------#
#This file is the author's own work and represents their interpretation of the #
#song. You may only use this file for private study, scholarship, or research. #
#------------------------------------------------------------------------------##
From: "Bugsan" <>
The Chameleons - Paper Tigers, bass tabs
official website: http://www.thechameleons.com/
=======================================

Mark (bass)

CHORUS and VERSE:
"Too much makes me lazy....
Not enough and it makes me crazy......"
[ Tab from: http://www.guitartabs.cc/tabs/t/the_chameleons/paper_tigers_btab.html ]
G||---------------------------|--------------------------|
D||*--------------------------|--------------------------|
A||*--2--2--2--2--2--2--2--2--|--7--7--7--7--7--7--7--7--|
E||---------------------------|--------------------------|

G||--------------------------|--------------------------|
D||--------------------------|--------------------------|
A||--9--9--9--9--9--9--9--9--|--7--7--7--7--7--7--7--7--|
E||--------------------------|--------------------------|


BRIDGE:
"They always keep themselves clean....."

G||--------------------------|--------------------------|
D||--------------------------|--------------------------|
A||--2--2--2--2--2--2--2--2--|--0--0--0--0--0--0--0--0--| x4
E||--------------------------|--------------------------|

END:
"I can't shake this feeling......"

G||--------------------------|--------------------------|
D||--------------------------|--------------------------|
A||--2--2--2--2--2--2--2--2--|--2--2--2--2--2--2--2--2--| x8
E||--------------------------|--------------------------|