The Casualties - No Room For The Youth Chords & Tabs

 

No Room For The Youth Chords & Tabs

The Casualties Chords & Tabs

Version: 1 Type: Tab 1 rating
1 star 2 stars 3 stars 4 stars 5 stars
comments

No Room For The Youth Tab

this,in my opinion is the casualties best song,its very easy to play.
this song sounds cool good luck.
[ Tab from: http://www.guitartabs.cc/tabs/t/the_casualties/no_room_for_the_youth_tab.html ]
intro
e-----------------------------------------------------------------
b-----------------------------------------------------------------
g-----------------------------------------------------------------
d-9-9-9-9-----------------9-9-9-9---------------------------------
a-7-7-7-7-9-9-9-9--11-9-7-7-7-7-7-9-9-9-9-7-7-7-7-9-9-9-9---------
e---------7-7-7-7--9--7-5---------7-7-7-7-5-5-5-5-7-7-7-7---------
verse
e-----------------------------------------------------------------
b-----------------------------------------------------------------
g-----------------------------------------------------------------
d-11-11-11-11-----------------------------------------------------
a-9--9--9--9--9-9-9-9--4--7--11-11-11-11--------------------------
e-------------7-7-7-7--2--5--9--9--9--9---------------------------
chorus
e-----------------------------------------------------------------
b-----------------------------------------------------------------
g-----------------------------------------------------------------
d-9-9-9-9---------------------------------------------------------
a-7-7-7-7--9-9-9-9--11-9-7-7-7-7-7--------------------------------
e----------7-7-7-7--9--7-5-5-5-5-5--------------------------------

learn this song nooooooooooooooow
Comments