The Calling - Stigmatized Chords & Tabs

 

Stigmatized Chords & Tabs

The Calling Chords & Tabs

Version: 1 Type: Tab 0 ratings
1 star 2 stars 3 stars 4 stars 5 stars
comments

Stigmatized Tab

   
From: "Charles Verzosa" 
Date: Wednesday, May 7, 2003, 4:00pm 

#----------------------------------PLEASE NOTE--------------------------------#
#This file is the author's own work and represents their interpretation of the#
#song. You may only use this file for private study, scholarship, or research.#
#-----------------------------------------------------------------------------#

Artist: The Calling
Song:   Stigmatized
Album:  Camino Palmero

Version 1.0 = May 7, 2003


*Ei guys this is my tab of Stigmatized, It’s the closest I could get, about 98%, I know its right.
*Listen carefully to song for the beat its kinda confusing specially “part.5” 
*E-mail me 4 any corrections or suggestions. 
*Hello to all Bosconians! Hello Philippines!.
*Very nice song, sounds very nice on a well tuned guitar, if your guitar is a little out of tune, 
 it doesn’t sound that good. 

*Legend
 
 v = Stum down
 ^ = Stum up
 h = Hammer
 
Normal tuning = eBGDAE

Part. 1/intro

e|--x--x-x-x--x--x-x-x-x-x-x-x---x---x-x-x--x--x-x-x-x-x-x-x-|    
B|--x--x-x-x--x--x-x-x-x-x-x-x---x---x-x-x--x--x-x-x-x-x-x-x-|    
G|--4--4-4-4--2--2-2-2-2-2-2-2---2h4-4-4-4--2--2-2-2-2-2-2-2-|
D|--0--0-0-0--0--0-0-0-0-0-0-0---0---0-0-0--0--0-0-0-0-0-0-0-|    
A|--0--0-0-0--0--0-0-0-0-0-0-0---0---0-0-0--0--0-0-0-0-0-0-0-|    
E|--3--3-3-3--3--3-3-3-3-3-3-3---3---3-3-3--3--3-3-3-3-3-3-3-|    
    v  ^ v ^  v  ^ v ^ v ^ v ^   v   ^ v ^  v  ^ v ^ v ^ v ^                             

e|--x--x-x-x--x--x-x-x-x-x-x-x---x---x-x-x--x--x-x-x-x-x-x-x-|
B|--x--x-x-x--x--x-x-x-x-x-x-x---x---x-x-x--x--x-x-x-x-x-x-x-|
G|--6--6-6-6--7--7-7-7-7-7-7-7---6---6-6-6--7--7-7-7-7-7-7-7-|
D|--0--0-0-0--0--0-0-0-0-0-0-0---0---0-0-0--0--0-0-0-0-0-0-0-|
A|--0--0-0-0--0--0-0-0-0-0-0-0---0---0-0-0--0--0-0-0-0-0-0-0-|
E|--5--5-5-5--7--7-7-7-7-7-7-7---5---5-5-5--7--7-7-7-7-7-7-7-|
    v  ^ v ^  v  ^ v ^ v ^ v ^   v   ^ v ^  v  ^ v ^ v ^ v ^     

Part. 2/verse

e|--x--x-x-x--x--x-x-x-x-x-x-x---x---x-x-x--x--x-x-x-x-x-x-x-|    
B|--x--x-x-x--x--x-x-x-x-x-x-x---x---x-x-x--x--x-x-x-x-x-x-x-|    
G|--4--4-4-4--2--2-2-2-2-2-2-2---2---4-4-4--2--2-2-2-2-2-2-2-|
D|--0--0-0-0--0--0-0-0-0-0-0-0---0---0-0-0--0--0-0-0-0-0-0-0-|    
A|--0--0-0-0--0--0-0-0-0-0-0-0---0---0-0-0--0--0-0-0-0-0-0-0-|    
E|--3--3-3-3--3--3-3-3-3-3-3-3---3---3-3-3--3--3-3-3-3-3-3-3-|    
    v  ^ v ^  v  ^ v ^ v ^ v ^   v   ^ v ^  v  ^ v ^ v ^ v ^                             

e|--x--x-x-x--x--x-x-x-x-x-x-x---x---x-x-x--x--x-x-x-x-x-x-x-|
B|--x--x-x-x--x--x-x-x-x-x-x-x---x---x-x-x--x--x-x-x-x-x-x-x-|
G|--6--6-6-6--7--7-7-7-7-7-7-7---6---6-6-6--7--7-7-7-7-7-7-7-|
D|--0--0-0-0--0--0-0-0-0-0-0-0---0---0-0-0--0--0-0-0-0-0-0-0-|
A|--0--0-0-0--0--0-0-0-0-0-0-0---0---0-0-0--0--0-0-0-0-0-0-0-|
E|--5--5-5-5--7--7-7-7-7-7-7-7---5---5-5-5--7--7-7-7-7-7-7-7-|
    v  ^ v ^  v  ^ v ^ v ^ v ^   v   ^ v ^  v  ^ v ^ v ^ v ^     

Part. 3/chorus 1
[ Tab from: http://www.guitartabs.cc/tabs/t/the_calling/stigmatized_tab.html ]
e|--x---x--x--x--x---x—-x—-x—-x—-x-—x--x--|
B|--x---x--x--x--x---x—-x--x--x--x--x--x--|
G|--12—-12-12-12-12--12—12—12-12-12-12-12-|
D|--0---0--0--0--0---0--0--0--0--0--0--0--|
A|--0---0--0--0--0---0--0--0--0--0--0--0--|
E|--12--12-12-12-12--12-12-12-12-12-12-12-|
    v   ^  v  ^  v   ^  v  ^  v  ^  v  ^          

e|--x---x--x--x--x---x—-x—-x—-x—-x-—x--x--|
B|--x---x--x--x--x---x—-x--x--x--x--x--x--|
G|--11—-11-11-11-11--11—11—11-11-11-11-11-|
D|--0---0--0--0--0---0--0--0--0--0--0--0--|
A|--0---0--0--0--0---0--0--0--0--0--0--0--|
E|--10--10-10-10-10--10-10-10-10-10-10-10-|
    v   ^  v  ^  v   ^  v  ^  v  ^  v  ^          


e|--x---x--x--x--x---x—-x—-x—-x—-x-—x--x--|
B|--x---x--x--x--x---x—-x--x--x--x--x--x--|
G|--9—--9--9--9--9---9—-9-—9--9--9--9--9--|
D|--0---0--0--0--0---0--0--0--0--0--0--0--|
A|--0---0--0--0--0---0--0--0--0--0--0--0--|
E|--9---9--9--9--9---9--9--9--9--9--9--9--|
    v   ^  v  ^  v   ^  v  ^  v  ^  v  ^          

e|-x--x-x-x-x-|
B|-x--x-x-x-x-|
G|-7--7-7-7-7-|
D|-0--0-0-0-0-|
A|-0--0-0-0-0-|
E|-7--7-7-7-7-|
   v  ^ ^ ^ v       

Part. 4/chorus 2

e|--x---x--x--x--x---x—-x—-x—-x—-x-—x--x--|
B|--x---x--x--x--x---x—-x--x--x--x--x--x--|
G|--12—-12-12-12-12--12—12—12-12-12-12-12-|
D|--0---0--0--0--0---0--0--0--0--0--0--0--|
A|--0---0--0--0--0---0--0--0--0--0--0--0--|
E|--12--12-12-12-12--12-12-12-12-12-12-12-|
    v   ^  v  ^  v   ^  v  ^  v  ^  v  ^          

e|--x---x--x--x--x---x—-x—-x—-x—-x-—x--x--|
B|--x---x--x--x--x---x—-x--x--x--x--x--x--|
G|--14—-14-14-14-14--14—14—14-14-14-14-14-|
D|--0---0--0--0--0---0--0--0--0--0--0--0--|
A|--0---0--0--0--0---0--0--0--0--0--0--0--|
E|--14--14-14-14-14--14-14-14-14-14-14-14-|
    v   ^  v  ^  v   ^  v  ^  v  ^  v  ^          


e|--x---x--x--x--x---x—-x—-x—-x—-x-—x--x--|
B|--x---x--x--x--x---x—-x--x--x--x--x--x--|
G|--9—--9--9--9--9---9—-9-—9--9--9--9--9--|
D|--0---0--0--0--0---0--0--0--0--0--0--0--|
A|--0---0--0--0--0---0--0--0--0--0--0--0--|
E|--9---9--9--9--9---9--9--9--9--9--9--9--|
    v   ^  v  ^  v   ^  v  ^  v  ^  v  ^          

e|-x--x-x-x-x-|
B|-x--x-x-x-x-|
G|-7--7-7-7-7-|
D|-0--0-0-0-0-|
A|-0--0-0-0-0-|
E|-7--7-7-7-7-|
   v  ^ ^ ^ v       

Part. 5

e|-x-x-x-x--x-x-x-x-x--x-x-x-x--x-x-x-x-|
B|-x-x-x-x--x-x-x-x-x--x-x-x-x--x-x-x-x-|
G|-2-2-4-4--6-6-6-7-6--2-2-2-4--6-6-6-7-|
D|-0-0-0-0--0-0-0-0-0--0-0-0-0--0-0-0-0-|
A|-0-0-0-0--0-0-0-0-0--0-0-0-0--0-0-0-0-|
E|-2-2-3-3--5-5-5-7-5--2-2-2-3--5-5-5-7-|
   v v v v  v v v v v  v v v v  v v v v                   

Part. 6

e|-x--x-x-x--x--x-x-x-x-x-x-x--x-|
B|-x--x-x-x--x--x-x-x-x-x-x-x--x-|
G|-4--4-4-4--2--2-2-2-2-2-2-2--7-|
D|-0--0-0-0--0--0-0-0-0-0-0-0--0-|
A|-0--0-0-0--0--0-0-0-0-0-0-0--0-|
E|-3--3-3-3--3--3-3-3-3-3-3-3--7-|
   V  ^ V ^  V  ^ V ^ V ^ V ^  V            

Part order

Part 1
Part 2
Part 2
Part 3
Part 2
Part 2
Part 2
Part 4
Part 2
Part 2
Part 6
Part 5
Part 5
Part 3
Part 3
Part 5
Part 5
Part 2
Part 2
Part 2
Part 2
Part 2
end
Comments