The Call - Bichar Kai Bhee Chords & Tabs

 

Bichar Kai Bhee Chords & Tabs

The Call Chords & Tabs

Version: 1 Type: Tab

Bichar Kai Bhee Tab

Updated da intro again... I think this is the last time i'll update it
D ---------------------------------------------------------|
A ---------------------------------------------------------|
G -------7---5-------------------0h2h4---2h4s5s4---2-0h2-2-|
D -----5---------9---7---------0---------------------------|
A ---5-----------------5-----0-----------------------------|
D -5-------5---5---5-----5-0-----------0---------0---------|
[ Tab from: http://www.guitartabs.cc/tabs/t/the_call/bichar_kai_bhee_tab.html ]
D ------------------------------------------------------------------|
A ------------------------------------------------------------------|
G -------4---2-------------------11h12---9h11h12p11-----------------|
D -----2---------5---4---------0----------------------12---10p9-7p5-|
A ---2-----------------2-----0--------------------------------------|
D -2-------2---2---2-----2-0-----------0------------0----0----------|

D -----------------------------------------------------------|
A -----------------------------------------------------------|
G -------7---9---7---------------7/11----11/12---12s14---14\-|
D -----5-------------5---------0-----------------------------|
A ---5-----------------5-----0-------------------------------|
D -5-------5---5---5-----5-0-----------0-------0-------0-----|

D -----------------------------------------------------|
A -----------------------------------------------------|
G -------4---2-------------------0h2h4---0-0h2-4-0h2-0-|
D -----2---------5---4---------0-----------0-----------|
A ---2-----------------2-----0-------------0-----------|
D -2-------2---2---2-----2-0-----------0---------------|

Limajdaas