The Bruisers - American Night Chords & Tabs

 

American Night Chords & Tabs

The Bruisers Chords & Tabs

Version: 2 Type: Tab 0 ratings
1 star 2 stars 3 stars 4 stars 5 stars
comments

American Night Tab

The Bruisers- American Night

American Punk rock Oi Band that kicks ass!!!

Tabbed by Darsh 


|-4-4-4xx--4x4x-4--22-2-2-2--22-2-2-2-|
|-4-4-4xx--5x5x-4--22-5-5-2--22-5-5-2-|
|-6-6-6xx--6x6x-6--44-4-4-4--22-2-2-2-|
|-6-6-6xx--6x6x-6--44-4-4-4--44-4-4-4_|  x4
|-4-4-4xx--4x4x-4--22-2-2-2--44-4-4-4-|
|----------------------------22-2-2-2-|

then this

|----------------|
|----------------|
|----------------| x5 ( Last one end on this  * )
|-*6--6-66-4-----| 
|-*4--4-44-2-4-6-|
|----------- 2-4-|



Verse
[ Tab from: http://www.guitartabs.cc/tabs/t/the_bruisers/american_night_tab_ver_2.html ]
|----------------------|
|----------------------|
|----------------------| 
|-666xxxx--42xx--------|  x4
|-444xxxx--22xx-44xx---|
|---------------22xx---|

then this

|----------------|
|----------------|
|----------------| x5 ( Last one end on this  * )
|-*6--6-66-4-----| 
|-*4--4-44-2-4-6-|
|----------- 2-4-|


chorus

|-----------------------------------|
|-----------------------------------|
|-----------------------------------|
|--------6-4-2-------------4-2------|
|-44444--4-2-0--6---22222--2-0--6-4-|
|-22222---------4---00000-------4-2-|


Anything you want its all right here!!!
Comments