The Break - 1 21 Gigawatts Chords & Tabs

 

1 21 Gigawatts Chords & Tabs

The Break Chords & Tabs

Version: 1 Type: Tab 0 ratings
1 star 2 stars 3 stars 4 stars 5 stars
comments

1 21 Gigawatts Tab

The Break
1.21 gigawatts                           www.thebreakpage.com
This song rules, i looked for the tabs but i couldnt find any so I did it for myself.
Tune half a step done & the order of the song is at the bottom. Enjoy Pigs.

Intro:
|-------------------------------------------|
|-------------------------------------------|
|-------------------------------------------|
|---------4---444-2---22-66-2---------------|
|-2---222-2---222-0---00-44-0---------------|
|-0---000-----------------------------------|    (this is your main riff)
    I'm not afraid to watch it go.....    
 
 This an added part to the intro the seconde time aka Intro+1
|---------------------|
|---------------------|
|---------------------|
|-44444444-2----------|
|-22222222-0----------|
|---------------------|

Riff2 
|-------------------------------------------|
|-------------------------------------------|
|-------------------------------------------|
|-----------44-444444-66-666666/99-22-222222|
|-22-222222-22-222222-44-444444/77-00-000000|
|-00-000000---------------------------------|
    And, i still struggle with it,.....
[ Tab from: http://www.guitartabs.cc/tabs/t/the_break/1_21_gigawatts_tab.html ]
Riff3                                         The third time add this:
|-------------------------------------------|----------------------------|
|-------------------------------------------|----------------------------|
|-11/131313/141414/131313/11-9--------------|-9/11-11/9--11/9------------|
|-x-/x-x-x-/x-x-x-/x-x-x-/x--x--------------|-x-x--x-/x--x-/x------------|
|-9-/111111/121212/111111/9--7--------------|-7/9--9-/7--9-/7------------|
|-------------------------------------------|----------------------------|
 
 Chorus thingy                               A second guitar picks this:
|-------------------------------------------|----------------------------|
|-------------------------------------------|-0-5-0--0-0-5-0--0-0-5-0-0-5|
|-------------------------------------------|----------------------------|
|-444444-6666666-22222222222----------------|----------------------------|
|-222222-4444444-00000000000----------------|----------------------------|
|-------------------------------------------|----------------------------|  
  Who, am i to say.... 
 
 These next 2 riffs are the interlude
|---------------------|
|---------------------|
|---------------------|
|-2222222222----------|
|-2222222222----------|
|-0000000000----------|
 Pm ........
|-5--4--0~--5--4--0~--5--4--0~--5--4--0~----|
|-------------------------------------------|
|-------------------------------------------|
|-------------------------------------------|
|-------------------------------------------|
|-------------------------------------------|
 
 End Chords:
|----------------------|
|----------------------|
|----6~-4~-2~-9~~------|
|-2~-6~-4~-2~-9~~------|
|-2~-4~-2~-0~-7~~------|
|-0~----------0~~------|
 
Intro     X2
Riff2     X1
Riff3     X3
Intro     X4
Intro+1   X1
Riff2     X1
Riff3     X3
Chorus    X4 w/gt2 X4
Intro     X2
Interlude X1
Chorus    X2* Theres no gt2 playing here!   
Riff2     X2
EndChords X1

This is my first tab, so go to hell if you dont like it moa.... 
Tanner
Comments