The Bravery - Honest Mistake Chords & Tabs

 

Honest Mistake Chords & Tabs

The Bravery Chords & Tabs

Version: 1 Type: Bass Tab 0 ratings
1 star 2 stars 3 stars 4 stars 5 stars
comments

Honest Mistake Bass Tab

Intro
G--------------------------------------------------------|
D--------------------------------------------------------|        / = Slide down
A-/5-----------------------------------------------------|
E--------------------------------------------------------|
[ Tab from: http://www.guitartabs.cc/tabs/t/the_bravery/honest_mistake_btab.html ]
Verse
G-------------------------------------------------|
D------------3-3-3-3-----------5-5-5-5------------|
A-5-5-5-5------------3-3-3-3----------------------|
E-------------------------------------------------|

Break
G-------------------------------------------------|
D--------------3333--5555-------------------------|
A-555--555----------------------------------------|
E-------------------------------------------------|

Chorus
G-----------------------------------------------------|
D-----------------------3-3-3-3--5-5-5-5--3-3---------|
A-5-5-5-5--1-1-1-1------------------------------------|
E-----------------------------------------------------|
Comments