The Bravery - Fearless Chords & Tabs

 

Fearless Chords & Tabs

The Bravery Chords & Tabs

Version: 2 Type: Tab 0 ratings
1 star 2 stars 3 stars 4 stars 5 stars
comments

Fearless Tab

   
Tuning- standard EADGBe

intro-
e|----------------------------------------------------------------------|
B|----------------------------------------------------------------------|
G|----------------------------------------------------------------------|x10
D|----------------------------------------------------------------------|
A|--------4-5-5---------5-7-7-------------------------------------------|
E|-5-7-7---------3-5-5--------------------------------------------------|

(actually i think this is a bass but you can play it on guitar if you choose.)

verse-
power chords start in the middle of the third time around with the intro above.
[ Tab from: http://www.guitartabs.cc/tabs/t/the_bravery/fearless_tab_ver_2.html ]
   B5    D5   A5   E5
e|----------------------------------------------------------------------|
B|----------------------------------------------------------------------|
G|------7-7-------9-9---------------------------------------------------|
D|-9-9--7-7--7-7--9-9---------------------------------------------------|
A|-9-9--5-5--7-7--7-7---------------------------------------------------|
E|-7-7-------5-5--------------------------------------------------------|


chorus- 
(play each chord for two measures except for *, then play for one measure)

   G5  B5  G5  A5  G5* E5* B5
e|----------------------------------------------------------------------|
B|----------------------------------------------------------------------|
G|---------------------9------------------------------------------------|
D|-5---9---5---7---5---9---9--------------------------------------------|
A|-5---9---5---7---5---7---9--------------------------------------------|
E|-3---7---3---5---3-------7--------------------------------------------|
Comments