The Bones - Do You Wanna Chords & Tabs

 

Do You Wanna Chords & Tabs

The Bones Chords & Tabs

Version: 1 Type: Tab 0 ratings
1 star 2 stars 3 stars 4 stars 5 stars
comments

Do You Wanna Tab

   
-----------------------------------------------------------------------------
			     Do You Wanna - The Bones
-----------------------------------------------------------------------------
Tabbed by: schleichi
Email: lemmyfrederiksen@yahoo.de

Tuning: standard

INTRO
    ~~let~ring~~
e|--0-------------------|
B|--0--2-3-2-0----------|
G|--1-------------------| 4x
D|--2-------------------|
A|--2-------------------|
E|--0-------------------|

VERSE

e|------------------------------------------------|
B|------------------------------------------------|
G|-------9---7---9---------7---9---7--------------|
D|--7----9---7---9-----7---7---9---7--------------|
A|--7----7---5---7-----7---5---7---5--------------|
E|--5------------------5--------------------------|

PRECHORUS (Rhythm is like intro)
     ~let~ring~~~
e|--x-0----------x-0----------x-0----------2---0------------|
B|--x-0--3--0----x-0--3--0----x-0--3--0----2---0------------|
G|--x-1----------x-1----------x-1----------2---1------------|
D|--x-2----------x-2----------x-2----------4---2------------|
A|--x-2----------x-2----------x-2----------4---2------------|
E|--x-0----------x-0----------x-0----------2---0------------|
[ Tab from: http://www.guitartabs.cc/tabs/t/the_bones/do_you_wanna_tab.html ]
CHORUS
e|---0---0---2---0------0---4---2---0----------|
B|---2---0---3---0------2---5---3---0----------|
G|---2---1---2---1------2---6---2---1----------|
D|---2---2---0---2------2---6---0---2----------|
A|---0---2---0---2------0---4-------2----------|
E|---0---0-------0------0-----------0----------|
     A   E   D   E
 
Solo Backing
e|-------------------------------------------------|
B|-------------------------------------------------|
G|--7--9-----7-----7--9-----6----7--9-----7--------|
D|--7--9--7--7-----7--9--7--6----7--9--7--7--------|
A|--5--7--7--5-----5--7--7--4----5--7--7--5--------|
E|--------5--------------5-------------5-----------|

Solo
e|-------------------------------------10-------12----------------------|
B|--11~~--9~~---2----2---------------------------------5-7-5------------|
G|--------------4b6--4b6--6-5-4-2~~--11--11---13--13--------6-4--6~~----|
D|-------------------------------------------------------------7--------|
A|----------------------------------------------------------------------|
E|----------------------------------------------------------------------|

e|-----10----------------------------------------------|
B|-------------9---------5-----------------------------|
G|---11--11---11b13~~-----4h6p4h6-\-2------------------|
D|-----------------------------------------7-----------|
A|-------------------------------------5b7r------------|
E|-----------------------------------------------------|


| /  slide up
| \  slide down
| h  hammer-on
| p  pull-off
| ~  vibrato
| +  harmonic
| x  Mute note
==============================================================================
Comments