The Bluetones - Fast Boy Chords & Tabs

 

Fast Boy Chords & Tabs

The Bluetones Chords & Tabs

Version: 1 Type: Tab 0 ratings
1 star 2 stars 3 stars 4 stars 5 stars
comments

Fast Boy Tab

   
fast.boy.crd#----------------------------------PLEASE NOTE--------------------------------#
#This file is the author's own work and represents their interpretation of the#
#song. You may only use this file for private study, scholarship, or research.#
#-----------------------------------------------------------------------------#

 I heard this song on top of the pops and thought, "hey thats got a catchy sound"
This is totally my own interpretation. It may be wrong but what the hell
It may be wrong but its my first transcription plese, mail me with any alterations 

 Transcribed by Shaun "kidder" woods, (woods_shaun@hotmail.com)

Chords used

F#   A   E   B
-2- -0- -0- -2-
-2- -2- -0- -4-
-3- -2- -1- -4-  At least I THINK SO.
-4- -2- -2- -4-
-4- -0- -2- -2-
-2- -x- -0- -x-

[ Tab from: http://www.guitartabs.cc/tabs/t/the_bluetones/fast_boy_tab.html ]
verse
  F#              A      E      B   B   B
     \/ ^  \/     \/    \/ ^     \/ ^   \/ 
|----2--2--2------0-----0--0-----2--2---2-|
|----2--2--2------2-----0--0-----4--4-5-4-|
|----3--3--3------2-----1--1-----4--4---4-| Repeat
|----4--4--4------2-----2--2-----4--4---4-|
|----4--4--4------0-----2--2-----2--2---2-|
|-2--2--2--2------------0--0--------------|

  Im   a   Fast boy...........etc......


 MID C (CHORUS)
 
  B  x7         E
|--2------------0-------------------------------------------
|--4------------0-------------------------------------------
|--4------------1-------------------------------------------
|--4------------2-------------------------------------------
|--0------------2-------------------------------------------
|---------------0------------------------------------------

 Whos the fast boy...etc 

The next bass progressive "ocean Colour scene Bit" seems like a ermmmmmm.....

A to B E to F# but i dunno its very bizaare, any one got any ideas please mail me.
 

 Transcribed again, by Shaun "kidder" woods










Comments