The Black Keys - Fever Chords & Tabs

 

Fever Chords & Tabs

The Black Keys Chords & Tabs

Version: 1 Type: Bass Tab 0 ratings
1 star 2 stars 3 stars 4 stars 5 stars
comments

Fever Bass Tab

   
-------------------------------------------------------------------------------
			     Fever - The Black Keys
-------------------------------------------------------------------------------
Tabbed by: Paul Nangle
E-mail: pnangle4@gmail.com

Tuning: G D A E (Standard)

Main Loop  (About the first half of the song)
G|----------------------------------------------------------------------------------------------------|
D|-7-7-7-7-7--7-7--7--7-5-5---------------------------------------------------------------------------|
A|--------------------------8-8-8-8-8--8-8--8--8-7-7-5-5-5-5-5--5-5--5--5-3-3-8-8-8-8-8------------7-7|
E|---------------------------------------------------------------------------------------1-1--1--1----|


1:32

G|---------------------------------------------------|
D|--7-7-7-7-7--7-7--7--7--5-5------------------------|
A|----------------------------8-8-8-8-8-----------7-7|
E|--------------------------------------1-1--1--1----|

After that segment, the song goes back to the main loop until 2:46


2:46

G|-------9-9-9------5-7-9-7-5-------7-7-7------5----5-7-5|
D|-----7-------9--7---------------5-------7--7---7-------|
A|--7--------------------------5-------------------------|
E|-------------------------------------------------------|

[ Tab from: http://www.guitartabs.cc/tabs/t/the_black_keys/fever_btab.html ]
2:54
G|--------------------------7-9-7--|
D|--7-7-7-7-7-7-7-5-5-5-5-5--------|x2
A|---------------------------------|
E|---------------------------------|

G|-------9-9-9------5-7-9-7-5------7-7-7------5----5-7-5-|
D|-----5-------9--7--------------5-------7--7---7--------|
A|--7--------------------------5-------------------------|
E|-------------------------------------------------------|

3:09
G|--------------------------7-9-7--|
D|--7-7-7-7-7-7-7-5-5-5-5-5--------|x2
A|---------------------------------|
E|---------------------------------|

G|-------9-9-9------5-7-9-7-5------7-7-7------5----5-7-5-|
D|-----5-------9--7--------------5-------7--7---7--------|
A|--7--------------------------5-------------------------|
E|-------------------------------------------------------|

(3:25) Repeat until end

G|----------------------------7-5-----------------------------------|
D|--7-7-7-7-7-7-7-5-5-5-5-5-5-----7-----------------------------5-6-|
A|----------------------------------7-7-7-7-7-7-7-5-5-5-5-5-5-7-----|
E|------------------------------------------------------------------|


The Very End

G|----------|
D|----------|
A|--7--5----|
E|--------5-|


| /  slide up
| \  slide down
| h  hammer-on
| p  pull-off
| ~  vibrato
| +  harmonic
| x  Mute note
===============================================================================
Comments